0
SECTION
2
HEADER
0
ENDSEC
0
SECTION
2
TABLES
0
TABLE
2
LTYPE
70
1
0
LTYPE
2
CONTINUOUS
70
64
3
Solid line
72
65
73
0
40
0
0
ENDTAB
0
TABLE
2
LAYER
70
20
0
LAYER
2
COMPASS
70
0
62
1
6
CONTINUOUS
0
LAYER
2
LAYER1
70
0
62
1
6
CONTINUOUS
0
LAYER
2
LAYER2
70
0
62
1
6
CONTINUOUS
0
LAYER
2
LAYER3
70
0
62
1
6
CONTINUOUS
0
LAYER
2
LAYER4
70
0
62
1
6
CONTINUOUS
0
LAYER
2
LAYER5
70
0
62
1
6
CONTINUOUS
0
LAYER
2
LAYER6
70
0
62
1
6
CONTINUOUS
0
LAYER
2
LAYER7
70
0
62
1
6
CONTINUOUS
0
LAYER
2
LAYER8
70
0
62
1
6
CONTINUOUS
0
LAYER
2
LAYER9
70
0
62
1
6
CONTINUOUS
0
LAYER
2
LAYER10
70
0
62
1
6
CONTINUOUS
0
LAYER
2
LAYER11
70
0
62
1
6
CONTINUOUS
0
LAYER
2
LAYER12
70
0
62
1
6
CONTINUOUS
0
LAYER
2
LAYER13
70
0
62
1
6
CONTINUOUS
0
LAYER
2
LAYER14
70
0
62
1
6
CONTINUOUS
0
LAYER
2
LAYER15
70
0
62
1
6
CONTINUOUS
0
LAYER
2
LAYER16
70
0
62
1
6
CONTINUOUS
0
LAYER
2
LAYER17
70
0
62
1
6
CONTINUOUS
0
LAYER
2
LAYER18
70
0
62
1
6
CONTINUOUS
0
LAYER
2
LAYER19
70
0
62
1
6
CONTINUOUS
0
ENDTAB
0
ENDSEC
0
SECTION
2
BLOCKS
0
ENDSEC
0
SECTION
2
ENTITIES
0
LINE
8
LAYER1
62
1
10
87.500000000000
20
1.000000271987
11
4.500000000000
21
1.000000271987
0
LINE
8
LAYER1
62
1
10
85.500000000000
20
13.654429042320
11
85.500000000000
21
11.500007629395
0
LINE
8
LAYER1
62
1
10
85.500000000000
20
11.500007629395
11
87.500000000000
21
11.500007629395
0
LINE
8
LAYER1
62
1
10
87.500000000000
20
11.500007629395
11
87.500000000000
21
1.000000271987
0
LINE
8
LAYER1
62
1
10
4.500000000000
20
1.000000271987
11
4.500000000000
21
45.229134669438
0
LINE
8
LAYER1
62
1
10
4.500000000000
20
45.229134669438
11
85.500000000000
21
13.654429042320
0
LINE
8
LAYER1
62
1
10
87.500000000000
20
9.654934819023
11
4.500000000000
21
42.009262807305
0
LINE
8
LAYER1
62
1
10
85.500000000000
20
19.018284328065
11
85.500000000000
21
11.500007629395
0
LINE
8
LAYER1
62
1
10
85.500000000000
20
11.500007629395
11
87.500000000000
21
11.500007629395
0
LINE
8
LAYER1
62
1
10
87.500000000000
20
11.500007629395
11
87.500000000000
21
9.654934819023
0
LINE
8
LAYER1
62
1
10
4.500000000000
20
42.009262807305
11
4.500000000000
21
98.975463815562
0
LINE
8
LAYER1
62
1
10
4.500000000000
20
98.975463815562
11
85.500000000000
21
19.018284328065
0
LINE
8
LAYER1
62
1
10
85.500000000000
20
14.802865743503
11
4.500000000000
21
94.760045231001
0
LINE
8
LAYER1
62
1
10
92.501559887300
20
19.500007629395
11
85.500000000000
21
19.500007629395
0
LINE
8
LAYER1
62
1
10
85.500000000000
20
19.500007629395
11
85.500000000000
21
14.802865743503
0
LINE
8
LAYER1
62
1
10
4.500000000000
20
94.760045231001
11
4.500000000000
21
100.500007629394
0
LINE
8
LAYER1
62
1
10
4.500000000000
20
100.500007629394
11
58.581050670816
21
100.500007629394
0
LINE
8
LAYER1
62
1
10
58.581050670816
20
100.500007629394
11
92.501559887300
21
19.500007629395
0
LINE
8
LAYER1
62
1
10
89.249125757050
20
19.500007629395
11
55.328616540566
21
100.500007629395
0
LINE
8
LAYER1
62
1
10
100.527267378088
20
17.500007629395
11
93.500000000000
21
17.500007629395
0
LINE
8
LAYER1
62
1
10
93.500000000000
20
17.500007629395
11
93.500000000000
21
19.500007629395
0
LINE
8
LAYER1
62
1
10
93.500000000000
20
19.500007629395
11
89.249125757050
21
19.500007629395
0
LINE
8
LAYER1
62
1
10
55.328616540566
20
100.500007629395
11
100.527267378088
21
100.500007629395
0
LINE
8
LAYER1
62
1
10
100.527267378088
20
100.500007629395
11
100.527267378088
21
17.500007629395
0
LINE
8
LAYER1
62
1
10
97.527267378088
20
17.500007629395
11
97.527267378088
21
100.500007629395
0
LINE
8
LAYER1
62
1
10
125.527267378088
20
17.500007629395
11
97.527267378088
21
17.500007629395
0
LINE
8
LAYER1
62
1
10
97.527267378088
20
100.500007629395
11
125.527267378088
21
100.500007629395
0
LINE
8
LAYER1
62
1
10
125.527267378088
20
100.500007629395
11
125.527267378088
21
17.500007629395
0
LINE
8
LAYER1
62
1
10
122.527267378088
20
17.500007629395
11
122.527267378088
21
100.500007629395
0
LINE
8
LAYER1
62
1
10
150.527267378088
20
17.500007629395
11
122.527267378088
21
17.500007629395
0
LINE
8
LAYER1
62
1
10
122.527267378088
20
100.500007629395
11
150.527267378088
21
100.500007629395
0
LINE
8
LAYER1
62
1
10
150.527267378088
20
100.500007629395
11
150.527267378088
21
17.500007629395
0
LINE
8
LAYER1
62
1
10
147.527267378088
20
17.500007629395
11
147.527267378088
21
100.500007629395
0
LINE
8
LAYER1
62
1
10
175.527267378088
20
17.500007629395
11
147.527267378088
21
17.500007629395
0
LINE
8
LAYER1
62
1
10
147.527267378088
20
100.500007629395
11
175.527267378088
21
100.500007629395
0
LINE
8
LAYER1
62
1
10
175.527267378088
20
100.500007629395
11
175.527267378088
21
17.500007629395
0
LINE
8
LAYER1
62
1
10
172.527267378088
20
17.500007629395
11
172.527267378088
21
100.500007629395
0
LINE
8
LAYER1
62
1
10
200.527267378088
20
17.500007629395
11
172.527267378088
21
17.500007629395
0
LINE
8
LAYER1
62
1
10
172.527267378088
20
100.500007629395
11
200.527267378088
21
100.500007629395
0
LINE
8
LAYER1
62
1
10
200.527267378088
20
100.500007629395
11
200.527267378088
21
17.500007629395
0
LINE
8
LAYER1
62
1
10
197.527267378088
20
17.500007629395
11
197.527267378088
21
100.500007629395
0
LINE
8
LAYER1
62
1
10
225.527267378088
20
17.500007629395
11
197.527267378088
21
17.500007629395
0
LINE
8
LAYER1
62
1
10
197.527267378088
20
100.500007629395
11
225.527267378088
21
100.500007629395
0
LINE
8
LAYER1
62
1
10
225.527267378088
20
100.500007629395
11
225.527267378088
21
17.500007629395
0
LINE
8
LAYER1
62
1
10
222.527267378088
20
17.500007629395
11
222.527267378088
21
100.500007629395
0
LINE
8
LAYER1
62
1
10
250.527267378088
20
17.500007629395
11
222.527267378088
21
17.500007629395
0
LINE
8
LAYER1
62
1
10
222.527267378088
20
100.500007629395
11
250.527267378088
21
100.500007629395
0
LINE
8
LAYER1
62
1
10
250.527267378088
20
100.500007629395
11
250.527267378088
21
17.500007629395
0
LINE
8
LAYER1
62
1
10
247.527267378088
20
17.500007629395
11
247.527267378088
21
100.500007629395
0
LINE
8
LAYER1
62
1
10
275.527267378088
20
17.500007629395
11
247.527267378088
21
17.500007629395
0
LINE
8
LAYER1
62
1
10
247.527267378088
20
100.500007629395
11
275.527267378088
21
100.500007629395
0
LINE
8
LAYER1
62
1
10
275.527267378088
20
100.500007629395
11
275.527267378088
21
17.500007629395
0
LINE
8
LAYER1
62
1
10
272.527267378088
20
17.500007629395
11
272.527267378088
21
100.500007629395
0
LINE
8
LAYER1
62
1
10
282.795942091926
20
19.500007629395
11
278.500000000000
21
19.500007629395
0
LINE
8
LAYER1
62
1
10
278.500000000000
20
19.500007629395
11
278.500000000000
21
17.500007629395
0
LINE
8
LAYER1
62
1
10
278.500000000000
20
17.500007629395
11
272.527267378088
21
17.500007629395
0
LINE
8
LAYER1
62
1
10
272.527267378088
20
100.500007629395
11
319.355320124816
21
100.500007629395
0
LINE
8
LAYER1
62
1
10
319.355320124816
20
100.500007629395
11
282.795942091926
21
19.500007629395
0
LINE
8
LAYER1
62
1
10
279.504520785833
20
19.500007629395
11
316.063898818724
21
100.500007629395
0
LINE
8
LAYER1
62
1
10
286.500000000000
20
14.762414443966
11
286.500000000000
21
19.500007629395
0
LINE
8
LAYER1
62
1
10
286.500000000000
20
19.500007629395
11
279.504520785833
21
19.500007629395
0
LINE
8
LAYER1
62
1
10
316.063898818724
20
100.500007629395
11
367.500000000000
21
100.500007629395
0
LINE
8
LAYER1
62
1
10
367.500000000000
20
100.500007629395
11
367.500000000000
21
92.408110732112
0
LINE
8
LAYER1
62
1
10
367.500000000000
20
92.408110732112
11
286.500000000000
21
14.762414443966
0
LINE
8
LAYER1
62
1
10
286.500000000000
20
18.918137381123
11
367.500000000000
21
96.563833669269
0
LINE
8
LAYER1
62
1
10
284.500000000000
20
10.335529468521
11
284.500000000000
21
11.500007629395
0
LINE
8
LAYER1
62
1
10
284.500000000000
20
11.500007629395
11
286.500000000000
21
11.500007629395
0
LINE
8
LAYER1
62
1
10
286.500000000000
20
11.500007629395
11
286.500000000000
21
18.918137381123
0
LINE
8
LAYER1
62
1
10
367.500000000000
20
96.563833669269
11
367.500000000000
21
39.018613256011
0
LINE
8
LAYER1
62
1
10
367.500000000000
20
39.018613256011
11
284.500000000000
21
10.335529468521
0
LINE
8
LAYER1
62
1
10
286.500000000000
20
14.200774693596
11
367.500000000000
21
42.192699835604
0
LINE
8
LAYER1
62
1
10
286.500000000000
20
0.000007629395
11
286.500000000000
21
8.000007629395
0
LINE
8
LAYER1
62
1
10
286.500000000000
20
8.000007629395
11
284.500000000000
21
8.000007629395
0
LINE
8
LAYER1
62
1
10
284.500000000000
20
8.000007629395
11
284.500000000000
21
11.500007629395
0
LINE
8
LAYER1
62
1
10
284.500000000000
20
11.500007629395
11
286.500000000000
21
11.500007629395
0
LINE
8
LAYER1
62
1
10
286.500000000000
20
11.500007629395
11
286.500000000000
21
14.200774693596
0
LINE
8
LAYER1
62
1
10
367.500000000000
20
42.192699835604
11
367.500000000000
21
0.000007629395
0
LINE
8
LAYER1
62
1
10
367.500000000000
20
0.000007629395
11
365.000000000000
21
0.000007629395
0
LINE
8
LAYER1
62
1
10
362.500000000000
20
0.000007629395
11
360.000000000000
21
0.000007629395
0
LINE
8
LAYER1
62
1
10
357.500000000000
20
0.000007629395
11
355.000000000000
21
0.000007629395
0
LINE
8
LAYER1
62
1
10
352.500000000000
20
0.000007629395
11
350.000000000000
21
0.000007629395
0
LINE
8
LAYER1
62
1
10
347.500000000000
20
0.000007629395
11
345.000000000000
21
0.000007629395
0
LINE
8
LAYER1
62
1
10
342.500000000000
20
0.000007629395
11
340.000000000000
21
0.000007629395
0
LINE
8
LAYER1
62
1
10
337.500000000000
20
0.000007629395
11
335.000000000000
21
0.000007629395
0
LINE
8
LAYER1
62
1
10
332.500000000000
20
0.000007629395
11
330.000000000000
21
0.000007629395
0
LINE
8
LAYER1
62
1
10
327.500000000000
20
0.000007629395
11
325.000000000000
21
0.000007629395
0
LINE
8
LAYER1
62
1
10
322.500000000000
20
0.000007629395
11
320.000000000000
21
0.000007629395
0
LINE
8
LAYER1
62
1
10
317.500000000000
20
0.000007629395
11
315.000000000000
21
0.000007629395
0
LINE
8
LAYER1
62
1
10
312.500000000000
20
0.000007629395
11
310.000000000000
21
0.000007629395
0
LINE
8
LAYER1
62
1
10
307.500000000000
20
0.000007629395
11
305.000000000000
21
0.000007629395
0
LINE
8
LAYER1
62
1
10
302.500000000000
20
0.000007629395
11
300.000000000000
21
0.000007629395
0
LINE
8
LAYER1
62
1
10
297.500000000000
20
0.000007629395
11
295.000000000000
21
0.000007629395
0
LINE
8
LAYER1
62
1
10
292.500000000000
20
0.000007629395
11
290.000000000000
21
0.000007629395
0
LINE
8
LAYER1
62
1
10
287.500000000000
20
0.000007629395
11
286.500000000000
21
0.000007629395
0
LINE
8
LAYER2
62
2
10
83.500000000000
20
4.000000271987
11
81.000000000000
21
4.000000271987
0
LINE
8
LAYER2
62
2
10
78.500000000000
20
4.000000271987
11
76.000000000000
21
4.000000271987
0
LINE
8
LAYER2
62
2
10
73.500000000000
20
4.000000271987
11
71.000000000000
21
4.000000271987
0
LINE
8
LAYER2
62
2
10
68.500000000000
20
4.000000271987
11
66.000000000000
21
4.000000271987
0
LINE
8
LAYER2
62
2
10
63.500000000000
20
4.000000271987
11
61.000000000000
21
4.000000271987
0
LINE
8
LAYER2
62
2
10
58.500000000000
20
4.000000271987
11
56.000000000000
21
4.000000271987
0
LINE
8
LAYER2
62
2
10
53.500000000000
20
4.000000271987
11
51.000000000000
21
4.000000271987
0
LINE
8
LAYER2
62
2
10
48.500000000000
20
4.000000271987
11
46.000000000000
21
4.000000271987
0
LINE
8
LAYER2
62
2
10
43.500000000000
20
4.000000271987
11
41.000000000000
21
4.000000271987
0
LINE
8
LAYER2
62
2
10
38.500000000000
20
4.000000271987
11
36.000000000000
21
4.000000271987
0
LINE
8
LAYER2
62
2
10
33.500000000000
20
4.000000271987
11
31.000000000000
21
4.000000271987
0
LINE
8
LAYER2
62
2
10
28.500000000000
20
4.000000271987
11
26.000000000000
21
4.000000271987
0
LINE
8
LAYER2
62
2
10
23.500000000000
20
4.000000271987
11
21.000000000000
21
4.000000271987
0
LINE
8
LAYER2
62
2
10
18.500000000000
20
4.000000271987
11
16.000000000000
21
4.000000271987
0
LINE
8
LAYER2
62
2
10
13.500000000000
20
4.000000271987
11
11.000000000000
21
4.000000271987
0
LINE
8
LAYER2
62
2
10
8.500000000000
20
6.000000271987
11
11.000000000000
21
6.000000271987
0
LINE
8
LAYER2
62
2
10
13.500000000000
20
6.000000271987
11
16.000000000000
21
6.000000271987
0
LINE
8
LAYER2
62
2
10
18.500000000000
20
6.000000271987
11
21.000000000000
21
6.000000271987
0
LINE
8
LAYER2
62
2
10
23.500000000000
20
6.000000271987
11
26.000000000000
21
6.000000271987
0
LINE
8
LAYER2
62
2
10
28.500000000000
20
6.000000271987
11
31.000000000000
21
6.000000271987
0
LINE
8
LAYER2
62
2
10
33.500000000000
20
6.000000271987
11
36.000000000000
21
6.000000271987
0
LINE
8
LAYER2
62
2
10
38.500000000000
20
6.000000271987
11
41.000000000000
21
6.000000271987
0
LINE
8
LAYER2
62
2
10
43.500000000000
20
6.000000271987
11
46.000000000000
21
6.000000271987
0
LINE
8
LAYER2
62
2
10
48.500000000000
20
6.000000271987
11
51.000000000000
21
6.000000271987
0
LINE
8
LAYER2
62
2
10
53.500000000000
20
6.000000271987
11
56.000000000000
21
6.000000271987
0
LINE
8
LAYER2
62
2
10
58.500000000000
20
6.000000271987
11
61.000000000000
21
6.000000271987
0
LINE
8
LAYER2
62
2
10
63.500000000000
20
6.000000271987
11
66.000000000000
21
6.000000271987
0
LINE
8
LAYER2
62
2
10
68.500000000000
20
6.000000271987
11
71.000000000000
21
6.000000271987
0
LINE
8
LAYER2
62
2
10
73.500000000000
20
6.000000271987
11
76.000000000000
21
6.000000271987
0
LINE
8
LAYER2
62
2
10
78.500000000000
20
6.000000271987
11
81.000000000000
21
6.000000271987
0
LINE
8
LAYER2
62
2
10
83.500000000000
20
6.000000271987
11
83.500000000000
21
4.000000271987
0
LINE
8
LAYER2
62
2
10
8.500000000000
20
4.000000271987
11
8.500000000000
21
6.000000271987
0
LINE
8
LAYER2
62
2
10
83.268563824304
20
14.524267812360
11
80.939278585285
21
15.432249241294
0
LINE
8
LAYER2
62
2
10
78.609993346266
20
16.340230670227
11
76.280708107247
21
17.248212099161
0
LINE
8
LAYER2
62
2
10
73.951422868228
20
18.156193528095
11
71.622137629209
21
19.064174957028
0
LINE
8
LAYER2
62
2
10
69.292852390190
20
19.972156385962
11
66.963567151171
21
20.880137814895
0
LINE
8
LAYER2
62
2
10
64.634281912152
20
21.788119243829
11
62.304996673133
21
22.696100672762
0
LINE
8
LAYER2
62
2
10
59.975711434114
20
23.604082101696
11
57.646426195095
21
24.512063530629
0
LINE
8
LAYER2
62
2
10
55.317140956076
20
25.420044959563
11
52.987855717057
21
26.328026388497
0
LINE
8
LAYER2
62
2
10
50.658570478038
20
27.236007817430
11
48.329285239019
21
28.143989246364
0
LINE
8
LAYER2
62
2
10
46.000000000000
20
29.051970675297
11
43.670714760981
21
29.959952104231
0
LINE
8
LAYER2
62
2
10
41.341429521962
20
30.867933533164
11
39.012144282943
21
31.775914962098
0
LINE
8
LAYER2
62
2
10
36.682859043924
20
32.683896391031
11
34.353573804905
21
33.591877819965
0
LINE
8
LAYER2
62
2
10
32.024288565886
20
34.499859248898
11
29.695003326867
21
35.407840677832
0
LINE
8
LAYER2
62
2
10
27.365718087848
20
36.315822106766
11
25.036432848829
21
37.223803535699
0
LINE
8
LAYER2
62
2
10
22.707147609810
20
38.131784964633
11
20.377862370791
21
39.039766393566
0
LINE
8
LAYER2
62
2
10
18.048577131772
20
39.947747822500
11
15.719291892753
21
40.855729251433
0
LINE
8
LAYER2
62
2
10
13.390006653734
20
41.763710680367
11
11.060721414715
21
42.671692109300
0
LINE
8
LAYER2
62
2
10
9.457821318843
20
45.443101729449
11
11.787106557862
21
44.535120300516
0
LINE
8
LAYER2
62
2
10
14.116391796881
20
43.627138871582
11
16.445677035900
21
42.719157442648
0
LINE
8
LAYER2
62
2
10
18.774962274919
20
41.811176013715
11
21.104247513938
21
40.903194584781
0
LINE
8
LAYER2
62
2
10
23.433532752957
20
39.995213155848
11
25.762817991976
21
39.087231726914
0
LINE
8
LAYER2
62
2
10
28.092103230995
20
38.179250297981
11
30.421388470014
21
37.271268869047
0
LINE
8
LAYER2
62
2
10
32.750673709033
20
36.363287440114
11
35.079958948052
21
35.455306011180
0
LINE
8
LAYER2
62
2
10
37.409244187071
20
34.547324582247
11
39.738529426090
21
33.639343153313
0
LINE
8
LAYER2
62
2
10
42.067814665109
20
32.731361724379
11
44.397099904128
21
31.823380295446
0
LINE
8
LAYER2
62
2
10
46.726385143147
20
30.915398866512
11
49.055670382166
21
30.007417437579
0
LINE
8
LAYER2
62
2
10
51.384955621185
20
29.099436008645
11
53.714240860204
21
28.191454579712
0
LINE
8
LAYER2
62
2
10
56.043526099223
20
27.283473150778
11
58.372811338242
21
26.375491721845
0
LINE
8
LAYER2
62
2
10
60.702096577261
20
25.467510292911
11
63.031381816280
21
24.559528863978
0
LINE
8
LAYER2
62
2
10
65.360667055299
20
23.651547435044
11
67.689952294318
21
22.743566006110
0
LINE
8
LAYER2
62
2
10
70.019237533337
20
21.835584577177
11
72.348522772356
21
20.927603148243
0
LINE
8
LAYER2
62
2
10
74.677808011375
20
20.019621719310
11
77.007093250394
21
19.111640290376
0
LINE
8
LAYER2
62
2
10
79.336378489413
20
18.203658861443
11
81.665663728432
21
17.295677432509
0
LINE
8
LAYER2
62
2
10
83.994948967451
20
16.387696003576
11
83.268563824304
21
14.524267812360
0
LINE
8
LAYER2
62
2
10
8.731436175696
20
43.579673538234
11
9.457821318843
21
45.443101729449
0
LINE
8
LAYER2
62
2
10
83.362837602136
20
21.127932197694
11
81.583654859177
21
22.884209159667
0
LINE
8
LAYER2
62
2
10
79.804472116218
20
24.640486121640
11
78.025289373259
21
26.396763083613
0
LINE
8
LAYER2
62
2
10
76.246106630301
20
28.153040045586
11
74.466923887342
21
29.909317007559
0
LINE
8
LAYER2
62
2
10
72.687741144383
20
31.665593969532
11
70.908558401424
21
33.421870931505
0
LINE
8
LAYER2
62
2
10
69.129375658465
20
35.178147893478
11
67.350192915506
21
36.934424855451
0
LINE
8
LAYER2
62
2
10
65.571010172547
20
38.690701817424
11
63.791827429589
21
40.446978779398
0
LINE
8
LAYER2
62
2
10
62.012644686630
20
42.203255741371
11
60.233461943671
21
43.959532703344
0
LINE
8
LAYER2
62
2
10
58.454279200712
20
45.715809665317
11
56.675096457753
21
47.472086627290
0
LINE
8
LAYER2
62
2
10
54.895913714794
20
49.228363589263
11
53.116730971835
21
50.984640551236
0
LINE
8
LAYER2
62
2
10
51.337548228877
20
52.740917513209
11
49.558365485918
21
54.497194475182
0
LINE
8
LAYER2
62
2
10
47.779182742959
20
56.253471437155
11
46.000000000000
21
58.009748399128
0
LINE
8
LAYER2
62
2
10
44.220817257041
20
59.766025361101
11
42.441634514082
21
61.522302323075
0
LINE
8
LAYER2
62
2
10
40.662451771123
20
63.278579285048
11
38.883269028165
21
65.034856247021
0
LINE
8
LAYER2
62
2
10
37.104086285206
20
66.791133208994
11
35.324903542247
21
68.547410170967
0
LINE
8
LAYER2
62
2
10
33.545720799288
20
70.303687132940
11
31.766538056329
21
72.059964094913
0
LINE
8
LAYER2
62
2
10
29.987355313370
20
73.816241056886
11
28.208172570411
21
75.572518018859
0
LINE
8
LAYER2
62
2
10
26.428989827453
20
77.328794980832
11
24.649807084494
21
79.085071942805
0
LINE
8
LAYER2
62
2
10
22.870624341535
20
80.841348904778
11
21.091441598576
21
82.597625866752
0
LINE
8
LAYER2
62
2
10
19.312258855617
20
84.353902828725
11
17.533076112658
21
86.110179790698
0
LINE
8
LAYER2
62
2
10
15.753893369699
20
87.866456752671
11
13.974710626741
21
89.622733714644
0
LINE
8
LAYER2
62
2
10
12.195527883782
20
91.379010676617
11
10.416345140823
21
93.135287638590
0
LINE
8
LAYER2
62
2
10
10.042183967442
20
96.314910794930
11
11.821366710401
21
94.558633832957
0
LINE
8
LAYER2
62
2
10
13.600549453360
20
92.802356870984
11
15.379732196319
21
91.046079909011
0
LINE
8
LAYER2
62
2
10
17.158914939278
20
89.289802947038
11
18.938097682237
21
87.533525985065
0
LINE
8
LAYER2
62
2
10
20.717280425196
20
85.777249023092
11
22.496463168154
21
84.020972061119
0
LINE
8
LAYER2
62
2
10
24.275645911113
20
82.264695099145
11
26.054828654072
21
80.508418137172
0
LINE
8
LAYER2
62
2
10
27.834011397031
20
78.752141175199
11
29.613194139990
21
76.995864213226
0
LINE
8
LAYER2
62
2
10
31.392376882949
20
75.239587251253
11
33.171559625908
21
73.483310289280
0
LINE
8
LAYER2
62
2
10
34.950742368866
20
71.727033327307
11
36.729925111825
21
69.970756365334
0
LINE
8
LAYER2
62
2
10
38.509107854784
20
68.214479403361
11
40.288290597743
21
66.458202441388
0
LINE
8
LAYER2
62
2
10
42.067473340702
20
64.701925479415
11
43.846656083661
21
62.945648517442
0
LINE
8
LAYER2
62
2
10
45.625838826620
20
61.189371555468
11
47.405021569578
21
59.433094593495
0
LINE
8
LAYER2
62
2
10
49.184204312537
20
57.676817631522
11
50.963387055496
21
55.920540669549
0
LINE
8
LAYER2
62
2
10
52.742569798455
20
54.164263707576
11
54.521752541414
21
52.407986745603
0
LINE
8
LAYER2
62
2
10
56.300935284373
20
50.651709783630
11
58.080118027332
21
48.895432821657
0
LINE
8
LAYER2
62
2
10
59.859300770290
20
47.139155859684
11
61.638483513249
21
45.382878897711
0
LINE
8
LAYER2
62
2
10
63.417666256208
20
43.626601935738
11
65.196848999167
21
41.870324973765
0
LINE
8
LAYER2
62
2
10
66.976031742126
20
40.114048011792
11
68.755214485085
21
38.357771049818
0
LINE
8
LAYER2
62
2
10
70.534397228044
20
36.601494087845
11
72.313579971002
21
34.845217125872
0
LINE
8
LAYER2
62
2
10
74.092762713961
20
33.088940163899
11
75.871945456920
21
31.332663201926
0
LINE
8
LAYER2
62
2
10
77.651128199879
20
29.576386239953
11
79.430310942838
21
27.820109277980
0
LINE
8
LAYER2
62
2
10
81.209493685797
20
26.063832316007
11
82.988676428756
21
24.307555354034
0
LINE
8
LAYER2
62
2
10
84.767859171714
20
22.551278392061
11
83.362837602136
21
21.127932197694
0
LINE
8
LAYER2
62
2
10
8.637162397864
20
94.891564600563
11
10.042183967442
21
96.314910794930
0
LINE
8
LAYER2
62
2
10
91.410845325188
20
22.104564034111
11
90.445172304725
21
24.410529258816
0
LINE
8
LAYER2
62
2
10
89.479499284262
20
26.716494483521
11
88.513826263799
21
29.022459708227
0
LINE
8
LAYER2
62
2
10
87.548153243336
20
31.328424932932
11
86.582480222873
21
33.634390157637
0
LINE
8
LAYER2
62
2
10
85.616807202410
20
35.940355382342
11
84.651134181947
21
38.246320607048
0
LINE
8
LAYER2
62
2
10
83.685461161484
20
40.552285831753
11
82.719788141021
21
42.858251056458
0
LINE
8
LAYER2
62
2
10
81.754115120558
20
45.164216281163
11
80.788442100095
21
47.470181505868
0
LINE
8
LAYER2
62
2
10
79.822769079632
20
49.776146730574
11
78.857096059169
21
52.082111955279
0
LINE
8
LAYER2
62
2
10
77.891423038706
20
54.388077179984
11
76.925750018243
21
56.694042404689
0
LINE
8
LAYER2
62
2
10
75.960076997780
20
59.000007629395
11
74.994403977317
21
61.305972854100
0
LINE
8
LAYER2
62
2
10
74.028730956854
20
63.611938078805
11
73.063057936391
21
65.917903303510
0
LINE
8
LAYER2
62
2
10
72.097384915928
20
68.223868528215
11
71.131711895465
21
70.529833752921
0
LINE
8
LAYER2
62
2
10
70.166038875002
20
72.835798977626
11
69.200365854539
21
75.141764202331
0
LINE
8
LAYER2
62
2
10
68.234692834076
20
77.447729427036
11
67.269019813613
21
79.753694651742
0
LINE
8
LAYER2
62
2
10
66.303346793150
20
82.059659876447
11
65.337673772687
21
84.365625101152
0
LINE
8
LAYER2
62
2
10
64.372000752224
20
86.671590325857
11
63.406327731760
21
88.977555550562
0
LINE
8
LAYER2
62
2
10
62.440654711297
20
91.283520775268
11
61.474981690834
21
93.589485999973
0
LINE
8
LAYER2
62
2
10
62.354080850135
20
96.667989641048
11
63.319753870598
21
94.362024416343
0
LINE
8
LAYER2
62
2
10
64.285426891062
20
92.056059191638
11
65.251099911525
21
89.750093966933
0
LINE
8
LAYER2
62
2
10
66.216772931988
20
87.444128742228
11
67.182445952451
21
85.138163517522
0
LINE
8
LAYER2
62
2
10
68.148118972914
20
82.832198292817
11
69.113791993377
21
80.526233068112
0
LINE
8
LAYER2
62
2
10
70.079465013840
20
78.220267843407
11
71.045138034303
21
75.914302618702
0
LINE
8
LAYER2
62
2
10
72.010811054766
20
73.608337393996
11
72.976484075229
21
71.302372169291
0
LINE
8
LAYER2
62
2
10
73.942157095692
20
68.996406944586
11
74.907830116155
21
66.690441719881
0
LINE
8
LAYER2
62
2
10
75.873503136618
20
64.384476495175
11
76.839176157081
21
62.078511270470
0
LINE
8
LAYER2
62
2
10
77.804849177544
20
59.772546045765
11
78.770522198007
21
57.466580821060
0
LINE
8
LAYER2
62
2
10
79.736195218470
20
55.160615596355
11
80.701868238933
21
52.854650371649
0
LINE
8
LAYER2
62
2
10
81.667541259396
20
50.548685146944
11
82.633214279859
21
48.242719922239
0
LINE
8
LAYER2
62
2
10
83.598887300322
20
45.936754697534
11
84.564560320785
21
43.630789472828
0
LINE
8
LAYER2
62
2
10
85.530233341248
20
41.324824248123
11
86.495906361711
21
39.018859023418
0
LINE
8
LAYER2
62
2
10
87.461579382174
20
36.712893798713
11
88.427252402637
21
34.406928574008
0
LINE
8
LAYER2
62
2
10
89.392925423100
20
32.100963349302
11
90.358598443563
21
29.794998124597
0
LINE
8
LAYER2
62
2
10
91.324271464026
20
27.489032899892
11
92.289944484489
21
25.183067675187
0
LINE
8
LAYER2
62
2
10
93.255617504953
20
22.877102450481
11
91.410845325188
21
22.104564034111
0
LINE
8
LAYER2
62
2
10
60.509308670371
20
95.895451224678
11
62.354080850135
21
96.667989641048
0
LINE
8
LAYER2
62
2
10
100.527267378088
20
21.500007629395
11
100.527267378088
21
24.000007629395
0
LINE
8
LAYER2
62
2
10
100.527267378088
20
26.500007629395
11
100.527267378088
21
29.000007629395
0
LINE
8
LAYER2
62
2
10
100.527267378088
20
31.500007629395
11
100.527267378088
21
34.000007629395
0
LINE
8
LAYER2
62
2
10
100.527267378088
20
36.500007629395
11
100.527267378088
21
39.000007629395
0
LINE
8
LAYER2
62
2
10
100.527267378088
20
41.500007629395
11
100.527267378088
21
44.000007629395
0
LINE
8
LAYER2
62
2
10
100.527267378088
20
46.500007629395
11
100.527267378088
21
49.000007629395
0
LINE
8
LAYER2
62
2
10
100.527267378088
20
51.500007629395
11
100.527267378088
21
54.000007629395
0
LINE
8
LAYER2
62
2
10
100.527267378088
20
56.500007629395
11
100.527267378088
21
59.000007629395
0
LINE
8
LAYER2
62
2
10
100.527267378088
20
61.500007629395
11
100.527267378088
21
64.000007629395
0
LINE
8
LAYER2
62
2
10
100.527267378088
20
66.500007629395
11
100.527267378088
21
69.000007629395
0
LINE
8
LAYER2
62
2
10
100.527267378088
20
71.500007629395
11
100.527267378088
21
74.000007629395
0
LINE
8
LAYER2
62
2
10
100.527267378088
20
76.500007629395
11
100.527267378088
21
79.000007629395
0
LINE
8
LAYER2
62
2
10
100.527267378088
20
81.500007629395
11
100.527267378088
21
84.000007629395
0
LINE
8
LAYER2
62
2
10
100.527267378088
20
86.500007629395
11
100.527267378088
21
89.000007629395
0
LINE
8
LAYER2
62
2
10
100.527267378088
20
91.500007629395
11
100.527267378088
21
94.000007629395
0
LINE
8
LAYER2
62
2
10
102.527267378088
20
96.500007629395
11
102.527267378088
21
94.000007629395
0
LINE
8
LAYER2
62
2
10
102.527267378088
20
91.500007629395
11
102.527267378088
21
89.000007629395
0
LINE
8
LAYER2
62
2
10
102.527267378088
20
86.500007629395
11
102.527267378088
21
84.000007629395
0
LINE
8
LAYER2
62
2
10
102.527267378088
20
81.500007629395
11
102.527267378088
21
79.000007629395
0
LINE
8
LAYER2
62
2
10
102.527267378088
20
76.500007629395
11
102.527267378088
21
74.000007629395
0
LINE
8
LAYER2
62
2
10
102.527267378088
20
71.500007629395
11
102.527267378088
21
69.000007629395
0
LINE
8
LAYER2
62
2
10
102.527267378088
20
66.500007629395
11
102.527267378088
21
64.000007629395
0
LINE
8
LAYER2
62
2
10
102.527267378088
20
61.500007629395
11
102.527267378088
21
59.000007629395
0
LINE
8
LAYER2
62
2
10
102.527267378088
20
56.500007629395
11
102.527267378088
21
54.000007629395
0
LINE
8
LAYER2
62
2
10
102.527267378088
20
51.500007629395
11
102.527267378088
21
49.000007629395
0
LINE
8
LAYER2
62
2
10
102.527267378088
20
46.500007629395
11
102.527267378088
21
44.000007629395
0
LINE
8
LAYER2
62
2
10
102.527267378088
20
41.500007629395
11
102.527267378088
21
39.000007629395
0
LINE
8
LAYER2
62
2
10
102.527267378088
20
36.500007629395
11
102.527267378088
21
34.000007629395
0
LINE
8
LAYER2
62
2
10
102.527267378088
20
31.500007629395
11
102.527267378088
21
29.000007629395
0
LINE
8
LAYER2
62
2
10
102.527267378088
20
26.500007629395
11
102.527267378088
21
24.000007629395
0
LINE
8
LAYER2
62
2
10
102.527267378088
20
21.500007629395
11
100.527267378088
21
21.500007629395
0
LINE
8
LAYER2
62
2
10
100.527267378088
20
96.500007629395
11
102.527267378088
21
96.500007629395
0
LINE
8
LAYER2
62
2
10
125.527267378088
20
21.500007629395
11
125.527267378088
21
24.000007629395
0
LINE
8
LAYER2
62
2
10
125.527267378088
20
26.500007629395
11
125.527267378088
21
29.000007629395
0
LINE
8
LAYER2
62
2
10
125.527267378088
20
31.500007629395
11
125.527267378088
21
34.000007629395
0
LINE
8
LAYER2
62
2
10
125.527267378088
20
36.500007629395
11
125.527267378088
21
39.000007629395
0
LINE
8
LAYER2
62
2
10
125.527267378088
20
41.500007629395
11
125.527267378088
21
44.000007629395
0
LINE
8
LAYER2
62
2
10
125.527267378088
20
46.500007629395
11
125.527267378088
21
49.000007629395
0
LINE
8
LAYER2
62
2
10
125.527267378088
20
51.500007629395
11
125.527267378088
21
54.000007629395
0
LINE
8
LAYER2
62
2
10
125.527267378088
20
56.500007629395
11
125.527267378088
21
59.000007629395
0
LINE
8
LAYER2
62
2
10
125.527267378088
20
61.500007629395
11
125.527267378088
21
64.000007629395
0
LINE
8
LAYER2
62
2
10
125.527267378088
20
66.500007629395
11
125.527267378088
21
69.000007629395
0
LINE
8
LAYER2
62
2
10
125.527267378088
20
71.500007629395
11
125.527267378088
21
74.000007629395
0
LINE
8
LAYER2
62
2
10
125.527267378088
20
76.500007629395
11
125.527267378088
21
79.000007629395
0
LINE
8
LAYER2
62
2
10
125.527267378088
20
81.500007629395
11
125.527267378088
21
84.000007629395
0
LINE
8
LAYER2
62
2
10
125.527267378088
20
86.500007629395
11
125.527267378088
21
89.000007629395
0
LINE
8
LAYER2
62
2
10
125.527267378088
20
91.500007629395
11
125.527267378088
21
94.000007629395
0
LINE
8
LAYER2
62
2
10
127.527267378088
20
96.500007629395
11
127.527267378088
21
94.000007629395
0
LINE
8
LAYER2
62
2
10
127.527267378088
20
91.500007629395
11
127.527267378088
21
89.000007629395
0
LINE
8
LAYER2
62
2
10
127.527267378088
20
86.500007629395
11
127.527267378088
21
84.000007629395
0
LINE
8
LAYER2
62
2
10
127.527267378088
20
81.500007629395
11
127.527267378088
21
79.000007629395
0
LINE
8
LAYER2
62
2
10
127.527267378088
20
76.500007629395
11
127.527267378088
21
74.000007629395
0
LINE
8
LAYER2
62
2
10
127.527267378088
20
71.500007629395
11
127.527267378088
21
69.000007629395
0
LINE
8
LAYER2
62
2
10
127.527267378088
20
66.500007629395
11
127.527267378088
21
64.000007629395
0
LINE
8
LAYER2
62
2
10
127.527267378088
20
61.500007629395
11
127.527267378088
21
59.000007629395
0
LINE
8
LAYER2
62
2
10
127.527267378088
20
56.500007629395
11
127.527267378088
21
54.000007629395
0
LINE
8
LAYER2
62
2
10
127.527267378088
20
51.500007629395
11
127.527267378088
21
49.000007629395
0
LINE
8
LAYER2
62
2
10
127.527267378088
20
46.500007629395
11
127.527267378088
21
44.000007629395
0
LINE
8
LAYER2
62
2
10
127.527267378088
20
41.500007629395
11
127.527267378088
21
39.000007629395
0
LINE
8
LAYER2
62
2
10
127.527267378088
20
36.500007629395
11
127.527267378088
21
34.000007629395
0
LINE
8
LAYER2
62
2
10
127.527267378088
20
31.500007629395
11
127.527267378088
21
29.000007629395
0
LINE
8
LAYER2
62
2
10
127.527267378088
20
26.500007629395
11
127.527267378088
21
24.000007629395
0
LINE
8
LAYER2
62
2
10
127.527267378088
20
21.500007629395
11
125.527267378088
21
21.500007629395
0
LINE
8
LAYER2
62
2
10
125.527267378088
20
96.500007629395
11
127.527267378088
21
96.500007629395
0
LINE
8
LAYER2
62
2
10
150.527267378088
20
21.500007629395
11
150.527267378088
21
24.000007629395
0
LINE
8
LAYER2
62
2
10
150.527267378088
20
26.500007629395
11
150.527267378088
21
29.000007629395
0
LINE
8
LAYER2
62
2
10
150.527267378088
20
31.500007629395
11
150.527267378088
21
34.000007629395
0
LINE
8
LAYER2
62
2
10
150.527267378088
20
36.500007629395
11
150.527267378088
21
39.000007629395
0
LINE
8
LAYER2
62
2
10
150.527267378088
20
41.500007629395
11
150.527267378088
21
44.000007629395
0
LINE
8
LAYER2
62
2
10
150.527267378088
20
46.500007629395
11
150.527267378088
21
49.000007629395
0
LINE
8
LAYER2
62
2
10
150.527267378088
20
51.500007629395
11
150.527267378088
21
54.000007629395
0
LINE
8
LAYER2
62
2
10
150.527267378088
20
56.500007629395
11
150.527267378088
21
59.000007629395
0
LINE
8
LAYER2
62
2
10
150.527267378088
20
61.500007629395
11
150.527267378088
21
64.000007629395
0
LINE
8
LAYER2
62
2
10
150.527267378088
20
66.500007629395
11
150.527267378088
21
69.000007629395
0
LINE
8
LAYER2
62
2
10
150.527267378088
20
71.500007629395
11
150.527267378088
21
74.000007629395
0
LINE
8
LAYER2
62
2
10
150.527267378088
20
76.500007629395
11
150.527267378088
21
79.000007629395
0
LINE
8
LAYER2
62
2
10
150.527267378088
20
81.500007629395
11
150.527267378088
21
84.000007629395
0
LINE
8
LAYER2
62
2
10
150.527267378088
20
86.500007629395
11
150.527267378088
21
89.000007629395
0
LINE
8
LAYER2
62
2
10
150.527267378088
20
91.500007629395
11
150.527267378088
21
94.000007629395
0
LINE
8
LAYER2
62
2
10
152.527267378088
20
96.500007629395
11
152.527267378088
21
94.000007629395
0
LINE
8
LAYER2
62
2
10
152.527267378088
20
91.500007629395
11
152.527267378088
21
89.000007629395
0
LINE
8
LAYER2
62
2
10
152.527267378088
20
86.500007629395
11
152.527267378088
21
84.000007629395
0
LINE
8
LAYER2
62
2
10
152.527267378088
20
81.500007629395
11
152.527267378088
21
79.000007629395
0
LINE
8
LAYER2
62
2
10
152.527267378088
20
76.500007629395
11
152.527267378088
21
74.000007629395
0
LINE
8
LAYER2
62
2
10
152.527267378088
20
71.500007629395
11
152.527267378088
21
69.000007629395
0
LINE
8
LAYER2
62
2
10
152.527267378088
20
66.500007629395
11
152.527267378088
21
64.000007629395
0
LINE
8
LAYER2
62
2
10
152.527267378088
20
61.500007629395
11
152.527267378088
21
59.000007629395
0
LINE
8
LAYER2
62
2
10
152.527267378088
20
56.500007629395
11
152.527267378088
21
54.000007629395
0
LINE
8
LAYER2
62
2
10
152.527267378088
20
51.500007629395
11
152.527267378088
21
49.000007629395
0
LINE
8
LAYER2
62
2
10
152.527267378088
20
46.500007629395
11
152.527267378088
21
44.000007629395
0
LINE
8
LAYER2
62
2
10
152.527267378088
20
41.500007629395
11
152.527267378088
21
39.000007629395
0
LINE
8
LAYER2
62
2
10
152.527267378088
20
36.500007629395
11
152.527267378088
21
34.000007629395
0
LINE
8
LAYER2
62
2
10
152.527267378088
20
31.500007629395
11
152.527267378088
21
29.000007629395
0
LINE
8
LAYER2
62
2
10
152.527267378088
20
26.500007629395
11
152.527267378088
21
24.000007629395
0
LINE
8
LAYER2
62
2
10
152.527267378088
20
21.500007629395
11
150.527267378088
21
21.500007629395
0
LINE
8
LAYER2
62
2
10
150.527267378088
20
96.500007629395
11
152.527267378088
21
96.500007629395
0
LINE
8
LAYER2
62
2
10
175.527267378088
20
21.500007629395
11
175.527267378088
21
24.000007629395
0
LINE
8
LAYER2
62
2
10
175.527267378088
20
26.500007629395
11
175.527267378088
21
29.000007629395
0
LINE
8
LAYER2
62
2
10
175.527267378088
20
31.500007629395
11
175.527267378088
21
34.000007629395
0
LINE
8
LAYER2
62
2
10
175.527267378088
20
36.500007629395
11
175.527267378088
21
39.000007629395
0
LINE
8
LAYER2
62
2
10
175.527267378088
20
41.500007629395
11
175.527267378088
21
44.000007629395
0
LINE
8
LAYER2
62
2
10
175.527267378088
20
46.500007629395
11
175.527267378088
21
49.000007629395
0
LINE
8
LAYER2
62
2
10
175.527267378088
20
51.500007629395
11
175.527267378088
21
54.000007629395
0
LINE
8
LAYER2
62
2
10
175.527267378088
20
56.500007629395
11
175.527267378088
21
59.000007629395
0
LINE
8
LAYER2
62
2
10
175.527267378088
20
61.500007629395
11
175.527267378088
21
64.000007629395
0
LINE
8
LAYER2
62
2
10
175.527267378088
20
66.500007629395
11
175.527267378088
21
69.000007629395
0
LINE
8
LAYER2
62
2
10
175.527267378088
20
71.500007629395
11
175.527267378088
21
74.000007629395
0
LINE
8
LAYER2
62
2
10
175.527267378088
20
76.500007629395
11
175.527267378088
21
79.000007629395
0
LINE
8
LAYER2
62
2
10
175.527267378088
20
81.500007629395
11
175.527267378088
21
84.000007629395
0
LINE
8
LAYER2
62
2
10
175.527267378088
20
86.500007629395
11
175.527267378088
21
89.000007629395
0
LINE
8
LAYER2
62
2
10
175.527267378088
20
91.500007629395
11
175.527267378088
21
94.000007629395
0
LINE
8
LAYER2
62
2
10
177.527267378088
20
96.500007629395
11
177.527267378088
21
94.000007629395
0
LINE
8
LAYER2
62
2
10
177.527267378088
20
91.500007629395
11
177.527267378088
21
89.000007629395
0
LINE
8
LAYER2
62
2
10
177.527267378088
20
86.500007629395
11
177.527267378088
21
84.000007629395
0
LINE
8
LAYER2
62
2
10
177.527267378088
20
81.500007629395
11
177.527267378088
21
79.000007629395
0
LINE
8
LAYER2
62
2
10
177.527267378088
20
76.500007629395
11
177.527267378088
21
74.000007629395
0
LINE
8
LAYER2
62
2
10
177.527267378088
20
71.500007629395
11
177.527267378088
21
69.000007629395
0
LINE
8
LAYER2
62
2
10
177.527267378088
20
66.500007629395
11
177.527267378088
21
64.000007629395
0
LINE
8
LAYER2
62
2
10
177.527267378088
20
61.500007629395
11
177.527267378088
21
59.000007629395
0
LINE
8
LAYER2
62
2
10
177.527267378088
20
56.500007629395
11
177.527267378088
21
54.000007629395
0
LINE
8
LAYER2
62
2
10
177.527267378088
20
51.500007629395
11
177.527267378088
21
49.000007629395
0
LINE
8
LAYER2
62
2
10
177.527267378088
20
46.500007629395
11
177.527267378088
21
44.000007629395
0
LINE
8
LAYER2
62
2
10
177.527267378088
20
41.500007629395
11
177.527267378088
21
39.000007629395
0
LINE
8
LAYER2
62
2
10
177.527267378088
20
36.500007629395
11
177.527267378088
21
34.000007629395
0
LINE
8
LAYER2
62
2
10
177.527267378088
20
31.500007629395
11
177.527267378088
21
29.000007629395
0
LINE
8
LAYER2
62
2
10
177.527267378088
20
26.500007629395
11
177.527267378088
21
24.000007629395
0
LINE
8
LAYER2
62
2
10
177.527267378088
20
21.500007629395
11
175.527267378088
21
21.500007629395
0
LINE
8
LAYER2
62
2
10
175.527267378088
20
96.500007629395
11
177.527267378088
21
96.500007629395
0
LINE
8
LAYER2
62
2
10
200.527267378088
20
21.500007629395
11
200.527267378088
21
24.000007629395
0
LINE
8
LAYER2
62
2
10
200.527267378088
20
26.500007629395
11
200.527267378088
21
29.000007629395
0
LINE
8
LAYER2
62
2
10
200.527267378088
20
31.500007629395
11
200.527267378088
21
34.000007629395
0
LINE
8
LAYER2
62
2
10
200.527267378088
20
36.500007629395
11
200.527267378088
21
39.000007629395
0
LINE
8
LAYER2
62
2
10
200.527267378088
20
41.500007629395
11
200.527267378088
21
44.000007629395
0
LINE
8
LAYER2
62
2
10
200.527267378088
20
46.500007629395
11
200.527267378088
21
49.000007629395
0
LINE
8
LAYER2
62
2
10
200.527267378088
20
51.500007629395
11
200.527267378088
21
54.000007629395
0
LINE
8
LAYER2
62
2
10
200.527267378088
20
56.500007629395
11
200.527267378088
21
59.000007629395
0
LINE
8
LAYER2
62
2
10
200.527267378088
20
61.500007629395
11
200.527267378088
21
64.000007629395
0
LINE
8
LAYER2
62
2
10
200.527267378088
20
66.500007629395
11
200.527267378088
21
69.000007629395
0
LINE
8
LAYER2
62
2
10
200.527267378088
20
71.500007629395
11
200.527267378088
21
74.000007629395
0
LINE
8
LAYER2
62
2
10
200.527267378088
20
76.500007629395
11
200.527267378088
21
79.000007629395
0
LINE
8
LAYER2
62
2
10
200.527267378088
20
81.500007629395
11
200.527267378088
21
84.000007629395
0
LINE
8
LAYER2
62
2
10
200.527267378088
20
86.500007629395
11
200.527267378088
21
89.000007629395
0
LINE
8
LAYER2
62
2
10
200.527267378088
20
91.500007629395
11
200.527267378088
21
94.000007629395
0
LINE
8
LAYER2
62
2
10
202.527267378088
20
96.500007629395
11
202.527267378088
21
94.000007629395
0
LINE
8
LAYER2
62
2
10
202.527267378088
20
91.500007629395
11
202.527267378088
21
89.000007629395
0
LINE
8
LAYER2
62
2
10
202.527267378088
20
86.500007629395
11
202.527267378088
21
84.000007629395
0
LINE
8
LAYER2
62
2
10
202.527267378088
20
81.500007629395
11
202.527267378088
21
79.000007629395
0
LINE
8
LAYER2
62
2
10
202.527267378088
20
76.500007629395
11
202.527267378088
21
74.000007629395
0
LINE
8
LAYER2
62
2
10
202.527267378088
20
71.500007629395
11
202.527267378088
21
69.000007629395
0
LINE
8
LAYER2
62
2
10
202.527267378088
20
66.500007629395
11
202.527267378088
21
64.000007629395
0
LINE
8
LAYER2
62
2
10
202.527267378088
20
61.500007629395
11
202.527267378088
21
59.000007629395
0
LINE
8
LAYER2
62
2
10
202.527267378088
20
56.500007629395
11
202.527267378088
21
54.000007629395
0
LINE
8
LAYER2
62
2
10
202.527267378088
20
51.500007629395
11
202.527267378088
21
49.000007629395
0
LINE
8
LAYER2
62
2
10
202.527267378088
20
46.500007629395
11
202.527267378088
21
44.000007629395
0
LINE
8
LAYER2
62
2
10
202.527267378088
20
41.500007629395
11
202.527267378088
21
39.000007629395
0
LINE
8
LAYER2
62
2
10
202.527267378088
20
36.500007629395
11
202.527267378088
21
34.000007629395
0
LINE
8
LAYER2
62
2
10
202.527267378088
20
31.500007629395
11
202.527267378088
21
29.000007629395
0
LINE
8
LAYER2
62
2
10
202.527267378088
20
26.500007629395
11
202.527267378088
21
24.000007629395
0
LINE
8
LAYER2
62
2
10
202.527267378088
20
21.500007629395
11
200.527267378088
21
21.500007629395
0
LINE
8
LAYER2
62
2
10
200.527267378088
20
96.500007629395
11
202.527267378088
21
96.500007629395
0
LINE
8
LAYER2
62
2
10
225.527267378088
20
21.500007629395
11
225.527267378088
21
24.000007629395
0
LINE
8
LAYER2
62
2
10
225.527267378088
20
26.500007629395
11
225.527267378088
21
29.000007629395
0
LINE
8
LAYER2
62
2
10
225.527267378088
20
31.500007629395
11
225.527267378088
21
34.000007629395
0
LINE
8
LAYER2
62
2
10
225.527267378088
20
36.500007629395
11
225.527267378088
21
39.000007629395
0
LINE
8
LAYER2
62
2
10
225.527267378088
20
41.500007629395
11
225.527267378088
21
44.000007629395
0
LINE
8
LAYER2
62
2
10
225.527267378088
20
46.500007629395
11
225.527267378088
21
49.000007629395
0
LINE
8
LAYER2
62
2
10
225.527267378088
20
51.500007629395
11
225.527267378088
21
54.000007629395
0
LINE
8
LAYER2
62
2
10
225.527267378088
20
56.500007629395
11
225.527267378088
21
59.000007629395
0
LINE
8
LAYER2
62
2
10
225.527267378088
20
61.500007629395
11
225.527267378088
21
64.000007629395
0
LINE
8
LAYER2
62
2
10
225.527267378088
20
66.500007629395
11
225.527267378088
21
69.000007629395
0
LINE
8
LAYER2
62
2
10
225.527267378088
20
71.500007629395
11
225.527267378088
21
74.000007629395
0
LINE
8
LAYER2
62
2
10
225.527267378088
20
76.500007629395
11
225.527267378088
21
79.000007629395
0
LINE
8
LAYER2
62
2
10
225.527267378088
20
81.500007629395
11
225.527267378088
21
84.000007629395
0
LINE
8
LAYER2
62
2
10
225.527267378088
20
86.500007629395
11
225.527267378088
21
89.000007629395
0
LINE
8
LAYER2
62
2
10
225.527267378088
20
91.500007629395
11
225.527267378088
21
94.000007629395
0
LINE
8
LAYER2
62
2
10
227.527267378088
20
96.500007629395
11
227.527267378088
21
94.000007629395
0
LINE
8
LAYER2
62
2
10
227.527267378088
20
91.500007629395
11
227.527267378088
21
89.000007629395
0
LINE
8
LAYER2
62
2
10
227.527267378088
20
86.500007629395
11
227.527267378088
21
84.000007629395
0
LINE
8
LAYER2
62
2
10
227.527267378088
20
81.500007629395
11
227.527267378088
21
79.000007629395
0
LINE
8
LAYER2
62
2
10
227.527267378088
20
76.500007629395
11
227.527267378088
21
74.000007629395
0
LINE
8
LAYER2
62
2
10
227.527267378088
20
71.500007629395
11
227.527267378088
21
69.000007629395
0
LINE
8
LAYER2
62
2
10
227.527267378088
20
66.500007629395
11
227.527267378088
21
64.000007629395
0
LINE
8
LAYER2
62
2
10
227.527267378088
20
61.500007629395
11
227.527267378088
21
59.000007629395
0
LINE
8
LAYER2
62
2
10
227.527267378088
20
56.500007629395
11
227.527267378088
21
54.000007629395
0
LINE
8
LAYER2
62
2
10
227.527267378088
20
51.500007629395
11
227.527267378088
21
49.000007629395
0
LINE
8
LAYER2
62
2
10
227.527267378088
20
46.500007629395
11
227.527267378088
21
44.000007629395
0
LINE
8
LAYER2
62
2
10
227.527267378088
20
41.500007629395
11
227.527267378088
21
39.000007629395
0
LINE
8
LAYER2
62
2
10
227.527267378088
20
36.500007629395
11
227.527267378088
21
34.000007629395
0
LINE
8
LAYER2
62
2
10
227.527267378088
20
31.500007629395
11
227.527267378088
21
29.000007629395
0
LINE
8
LAYER2
62
2
10
227.527267378088
20
26.500007629395
11
227.527267378088
21
24.000007629395
0
LINE
8
LAYER2
62
2
10
227.527267378088
20
21.500007629395
11
225.527267378088
21
21.500007629395
0
LINE
8
LAYER2
62
2
10
225.527267378088
20
96.500007629395
11
227.527267378088
21
96.500007629395
0
LINE
8
LAYER2
62
2
10
250.527267378088
20
21.500007629395
11
250.527267378088
21
24.000007629395
0
LINE
8
LAYER2
62
2
10
250.527267378088
20
26.500007629395
11
250.527267378088
21
29.000007629395
0
LINE
8
LAYER2
62
2
10
250.527267378088
20
31.500007629395
11
250.527267378088
21
34.000007629395
0
LINE
8
LAYER2
62
2
10
250.527267378088
20
36.500007629395
11
250.527267378088
21
39.000007629395
0
LINE
8
LAYER2
62
2
10
250.527267378088
20
41.500007629395
11
250.527267378088
21
44.000007629395
0
LINE
8
LAYER2
62
2
10
250.527267378088
20
46.500007629395
11
250.527267378088
21
49.000007629395
0
LINE
8
LAYER2
62
2
10
250.527267378088
20
51.500007629395
11
250.527267378088
21
54.000007629395
0
LINE
8
LAYER2
62
2
10
250.527267378088
20
56.500007629395
11
250.527267378088
21
59.000007629395
0
LINE
8
LAYER2
62
2
10
250.527267378088
20
61.500007629395
11
250.527267378088
21
64.000007629395
0
LINE
8
LAYER2
62
2
10
250.527267378088
20
66.500007629395
11
250.527267378088
21
69.000007629395
0
LINE
8
LAYER2
62
2
10
250.527267378088
20
71.500007629395
11
250.527267378088
21
74.000007629395
0
LINE
8
LAYER2
62
2
10
250.527267378088
20
76.500007629395
11
250.527267378088
21
79.000007629395
0
LINE
8
LAYER2
62
2
10
250.527267378088
20
81.500007629395
11
250.527267378088
21
84.000007629395
0
LINE
8
LAYER2
62
2
10
250.527267378088
20
86.500007629395
11
250.527267378088
21
89.000007629395
0
LINE
8
LAYER2
62
2
10
250.527267378088
20
91.500007629395
11
250.527267378088
21
94.000007629395
0
LINE
8
LAYER2
62
2
10
252.527267378088
20
96.500007629395
11
252.527267378088
21
94.000007629395
0
LINE
8
LAYER2
62
2
10
252.527267378088
20
91.500007629395
11
252.527267378088
21
89.000007629395
0
LINE
8
LAYER2
62
2
10
252.527267378088
20
86.500007629395
11
252.527267378088
21
84.000007629395
0
LINE
8
LAYER2
62
2
10
252.527267378088
20
81.500007629395
11
252.527267378088
21
79.000007629395
0
LINE
8
LAYER2
62
2
10
252.527267378088
20
76.500007629395
11
252.527267378088
21
74.000007629395
0
LINE
8
LAYER2
62
2
10
252.527267378088
20
71.500007629395
11
252.527267378088
21
69.000007629395
0
LINE
8
LAYER2
62
2
10
252.527267378088
20
66.500007629395
11
252.527267378088
21
64.000007629395
0
LINE
8
LAYER2
62
2
10
252.527267378088
20
61.500007629395
11
252.527267378088
21
59.000007629395
0
LINE
8
LAYER2
62
2
10
252.527267378088
20
56.500007629395
11
252.527267378088
21
54.000007629395
0
LINE
8
LAYER2
62
2
10
252.527267378088
20
51.500007629395
11
252.527267378088
21
49.000007629395
0
LINE
8
LAYER2
62
2
10
252.527267378088
20
46.500007629395
11
252.527267378088
21
44.000007629395
0
LINE
8
LAYER2
62
2
10
252.527267378088
20
41.500007629395
11
252.527267378088
21
39.000007629395
0
LINE
8
LAYER2
62
2
10
252.527267378088
20
36.500007629395
11
252.527267378088
21
34.000007629395
0
LINE
8
LAYER2
62
2
10
252.527267378088
20
31.500007629395
11
252.527267378088
21
29.000007629395
0
LINE
8
LAYER2
62
2
10
252.527267378088
20
26.500007629395
11
252.527267378088
21
24.000007629395
0
LINE
8
LAYER2
62
2
10
252.527267378088
20
21.500007629395
11
250.527267378088
21
21.500007629395
0
LINE
8
LAYER2
62
2
10
250.527267378088
20
96.500007629395
11
252.527267378088
21
96.500007629395
0
LINE
8
LAYER2
62
2
10
275.527267378088
20
21.500007629395
11
275.527267378088
21
24.000007629395
0
LINE
8
LAYER2
62
2
10
275.527267378088
20
26.500007629395
11
275.527267378088
21
29.000007629395
0
LINE
8
LAYER2
62
2
10
275.527267378088
20
31.500007629395
11
275.527267378088
21
34.000007629395
0
LINE
8
LAYER2
62
2
10
275.527267378088
20
36.500007629395
11
275.527267378088
21
39.000007629395
0
LINE
8
LAYER2
62
2
10
275.527267378088
20
41.500007629395
11
275.527267378088
21
44.000007629395
0
LINE
8
LAYER2
62
2
10
275.527267378088
20
46.500007629395
11
275.527267378088
21
49.000007629395
0
LINE
8
LAYER2
62
2
10
275.527267378088
20
51.500007629395
11
275.527267378088
21
54.000007629395
0
LINE
8
LAYER2
62
2
10
275.527267378088
20
56.500007629395
11
275.527267378088
21
59.000007629395
0
LINE
8
LAYER2
62
2
10
275.527267378088
20
61.500007629395
11
275.527267378088
21
64.000007629395
0
LINE
8
LAYER2
62
2
10
275.527267378088
20
66.500007629395
11
275.527267378088
21
69.000007629395
0
LINE
8
LAYER2
62
2
10
275.527267378088
20
71.500007629395
11
275.527267378088
21
74.000007629395
0
LINE
8
LAYER2
62
2
10
275.527267378088
20
76.500007629395
11
275.527267378088
21
79.000007629395
0
LINE
8
LAYER2
62
2
10
275.527267378088
20
81.500007629395
11
275.527267378088
21
84.000007629395
0
LINE
8
LAYER2
62
2
10
275.527267378088
20
86.500007629395
11
275.527267378088
21
89.000007629395
0
LINE
8
LAYER2
62
2
10
275.527267378088
20
91.500007629395
11
275.527267378088
21
94.000007629395
0
LINE
8
LAYER2
62
2
10
277.527267378088
20
96.500007629395
11
277.527267378088
21
94.000007629395
0
LINE
8
LAYER2
62
2
10
277.527267378088
20
91.500007629395
11
277.527267378088
21
89.000007629395
0
LINE
8
LAYER2
62
2
10
277.527267378088
20
86.500007629395
11
277.527267378088
21
84.000007629395
0
LINE
8
LAYER2
62
2
10
277.527267378088
20
81.500007629395
11
277.527267378088
21
79.000007629395
0
LINE
8
LAYER2
62
2
10
277.527267378088
20
76.500007629395
11
277.527267378088
21
74.000007629395
0
LINE
8
LAYER2
62
2
10
277.527267378088
20
71.500007629395
11
277.527267378088
21
69.000007629395
0
LINE
8
LAYER2
62
2
10
277.527267378088
20
66.500007629395
11
277.527267378088
21
64.000007629395
0
LINE
8
LAYER2
62
2
10
277.527267378088
20
61.500007629395
11
277.527267378088
21
59.000007629395
0
LINE
8
LAYER2
62
2
10
277.527267378088
20
56.500007629395
11
277.527267378088
21
54.000007629395
0
LINE
8
LAYER2
62
2
10
277.527267378088
20
51.500007629395
11
277.527267378088
21
49.000007629395
0
LINE
8
LAYER2
62
2
10
277.527267378088
20
46.500007629395
11
277.527267378088
21
44.000007629395
0
LINE
8
LAYER2
62
2
10
277.527267378088
20
41.500007629395
11
277.527267378088
21
39.000007629395
0
LINE
8
LAYER2
62
2
10
277.527267378088
20
36.500007629395
11
277.527267378088
21
34.000007629395
0
LINE
8
LAYER2
62
2
10
277.527267378088
20
31.500007629395
11
277.527267378088
21
29.000007629395
0
LINE
8
LAYER2
62
2
10
277.527267378088
20
26.500007629395
11
277.527267378088
21
24.000007629395
0
LINE
8
LAYER2
62
2
10
277.527267378088
20
21.500007629395
11
275.527267378088
21
21.500007629395
0
LINE
8
LAYER2
62
2
10
275.527267378088
20
96.500007629395
11
277.527267378088
21
96.500007629395
0
LINE
8
LAYER2
62
2
10
284.281600658030
20
22.791593819569
11
285.310070513703
21
25.070244682683
0
LINE
8
LAYER2
62
2
10
286.338540369377
20
27.348895545797
11
287.367010225050
21
29.627546408911
0
LINE
8
LAYER2
62
2
10
288.395480080724
20
31.906197272025
11
289.423949936398
21
34.184848135139
0
LINE
8
LAYER2
62
2
10
290.452419792071
20
36.463498998253
11
291.480889647745
21
38.742149861367
0
LINE
8
LAYER2
62
2
10
292.509359503419
20
41.020800724482
11
293.537829359092
21
43.299451587596
0
LINE
8
LAYER2
62
2
10
294.566299214766
20
45.578102450710
11
295.594769070439
21
47.856753313824
0
LINE
8
LAYER2
62
2
10
296.623238926113
20
50.135404176938
11
297.651708781787
21
52.414055040052
0
LINE
8
LAYER2
62
2
10
298.680178637460
20
54.692705903166
11
299.708648493134
21
56.971356766280
0
LINE
8
LAYER2
62
2
10
300.737118348807
20
59.250007629395
11
301.765588204481
21
61.528658492509
0
LINE
8
LAYER2
62
2
10
302.794058060155
20
63.807309355623
11
303.822527915828
21
66.085960218737
0
LINE
8
LAYER2
62
2
10
304.850997771502
20
68.364611081851
11
305.879467627176
21
70.643261944965
0
LINE
8
LAYER2
62
2
10
306.907937482849
20
72.921912808079
11
307.936407338523
21
75.200563671193
0
LINE
8
LAYER2
62
2
10
308.964877194196
20
77.479214534308
11
309.993347049870
21
79.757865397422
0
LINE
8
LAYER2
62
2
10
311.021816905544
20
82.036516260536
11
312.050286761217
21
84.315167123650
0
LINE
8
LAYER2
62
2
10
313.078756616891
20
86.593817986764
11
314.107226472565
21
88.872468849878
0
LINE
8
LAYER2
62
2
10
315.135696328238
20
91.151119712992
11
316.164166183912
21
93.429770576106
0
LINE
8
LAYER2
62
2
10
319.015556730076
20
94.885645554682
11
317.987086874402
21
92.606994691567
0
LINE
8
LAYER2
62
2
10
316.958617018729
20
90.328343828453
11
315.930147163055
21
88.049692965339
0
LINE
8
LAYER2
62
2
10
314.901677307382
20
85.771042102225
11
313.873207451708
21
83.492391239111
0
LINE
8
LAYER2
62
2
10
312.844737596034
20
81.213740375997
11
311.816267740361
21
78.935089512883
0
LINE
8
LAYER2
62
2
10
310.787797884687
20
76.656438649769
11
309.759328029013
21
74.377787786654
0
LINE
8
LAYER2
62
2
10
308.730858173340
20
72.099136923540
11
307.702388317666
21
69.820486060426
0
LINE
8
LAYER2
62
2
10
306.673918461993
20
67.541835197312
11
305.645448606319
21
65.263184334198
0
LINE
8
LAYER2
62
2
10
304.616978750645
20
62.984533471084
11
303.588508894972
21
60.705882607970
0
LINE
8
LAYER2
62
2
10
302.560039039298
20
58.427231744856
11
301.531569183624
21
56.148580881742
0
LINE
8
LAYER2
62
2
10
300.503099327951
20
53.869930018627
11
299.474629472277
21
51.591279155513
0
LINE
8
LAYER2
62
2
10
298.446159616604
20
49.312628292399
11
297.417689760930
21
47.033977429285
0
LINE
8
LAYER2
62
2
10
296.389219905256
20
44.755326566171
11
295.360750049583
21
42.476675703057
0
LINE
8
LAYER2
62
2
10
294.332280193909
20
40.198024839943
11
293.303810338236
21
37.919373976829
0
LINE
8
LAYER2
62
2
10
292.275340482562
20
35.640723113714
11
291.246870626888
21
33.362072250600
0
LINE
8
LAYER2
62
2
10
290.218400771215
20
31.083421387486
11
289.189930915541
21
28.804770524372
0
LINE
8
LAYER2
62
2
10
288.161461059867
20
26.526119661258
11
287.132991204194
21
24.247468798144
0
LINE
8
LAYER2
62
2
10
286.104521348521
20
21.968817935030
11
284.281600658030
21
22.791593819569
0
LINE
8
LAYER2
62
2
10
317.192636039585
20
95.708421439220
11
319.015556730076
21
94.885645554682
0
LINE
8
LAYER2
62
2
10
288.100457036785
20
16.296594703231
11
289.905197177890
21
18.026598467123
0
LINE
8
LAYER2
62
2
10
291.709937318996
20
19.756602231016
11
293.514677460101
21
21.486605994909
0
LINE
8
LAYER2
62
2
10
295.319417601207
20
23.216609758801
11
297.124157742312
21
24.946613522694
0
LINE
8
LAYER2
62
2
10
298.928897883418
20
26.676617286586
11
300.733638024523
21
28.406621050479
0
LINE
8
LAYER2
62
2
10
302.538378165629
20
30.136624814372
11
304.343118306734
21
31.866628578264
0
LINE
8
LAYER2
62
2
10
306.147858447840
20
33.596632342157
11
307.952598588945
21
35.326636106049
0
LINE
8
LAYER2
62
2
10
309.757338730051
20
37.056639869942
11
311.562078871156
21
38.786643633835
0
LINE
8
LAYER2
62
2
10
313.366819012261
20
40.516647397727
11
315.171559153367
21
42.246651161620
0
LINE
8
LAYER2
62
2
10
316.976299294472
20
43.976654925512
11
318.781039435578
21
45.706658689405
0
LINE
8
LAYER2
62
2
10
320.585779576683
20
47.436662453298
11
322.390519717789
21
49.166666217190
0
LINE
8
LAYER2
62
2
10
324.195259858894
20
50.896669981083
11
326.000000000000
21
52.626673744975
0
LINE
8
LAYER2
62
2
10
327.804740141105
20
54.356677508868
11
329.609480282211
21
56.086681272761
0
LINE
8
LAYER2
62
2
10
331.414220423316
20
57.816685036653
11
333.218960564422
21
59.546688800546
0
LINE
8
LAYER2
62
2
10
335.023700705527
20
61.276692564438
11
336.828440846633
21
63.006696328331
0
LINE
8
LAYER2
62
2
10
338.633180987738
20
64.736700092224
11
340.437921128844
21
66.466703856116
0
LINE
8
LAYER2
62
2
10
342.242661269949
20
68.196707620009
11
344.047401411054
21
69.926711383901
0
LINE
8
LAYER2
62
2
10
345.852141552160
20
71.656715147794
11
347.656881693265
21
73.386718911687
0
LINE
8
LAYER2
62
2
10
349.461621834371
20
75.116722675579
11
351.266361975476
21
76.846726439472
0
LINE
8
LAYER2
62
2
10
353.071102116582
20
78.576730203364
11
354.875842257687
21
80.306733967257
0
LINE
8
LAYER2
62
2
10
356.680582398793
20
82.036737731150
11
358.485322539898
21
83.766741495042
0
LINE
8
LAYER2
62
2
10
360.290062681004
20
85.496745258935
11
362.094802822109
21
87.226749022827
0
LINE
8
LAYER2
62
2
10
365.283545974329
20
87.512960673836
11
363.478805833224
21
85.782956909943
0
LINE
8
LAYER2
62
2
10
361.674065692118
20
84.052953146050
11
359.869325551013
21
82.322949382158
0
LINE
8
LAYER2
62
2
10
358.064585409907
20
80.592945618265
11
356.259845268802
21
78.862941854373
0
LINE
8
LAYER2
62
2
10
354.455105127696
20
77.132938090480
11
352.650364986591
21
75.402934326588
0
LINE
8
LAYER2
62
2
10
350.845624845485
20
73.672930562695
11
349.040884704380
21
71.942926798802
0
LINE
8
LAYER2
62
2
10
347.236144563274
20
70.212923034910
11
345.431404422169
21
68.482919271017
0
LINE
8
LAYER2
62
2
10
343.626664281063
20
66.752915507125
11
341.821924139958
21
65.022911743232
0
LINE
8
LAYER2
62
2
10
340.017183998853
20
63.292907979339
11
338.212443857747
21
61.562904215447
0
LINE
8
LAYER2
62
2
10
336.407703716642
20
59.832900451554
11
334.602963575536
21
58.102896687662
0
LINE
8
LAYER2
62
2
10
332.798223434431
20
56.372892923769
11
330.993483293325
21
54.642889159876
0
LINE
8
LAYER2
62
2
10
329.188743152220
20
52.912885395984
11
327.384003011114
21
51.182881632091
0
LINE
8
LAYER2
62
2
10
325.579262870009
20
49.452877868198
11
323.774522728903
21
47.722874104306
0
LINE
8
LAYER2
62
2
10
321.969782587798
20
45.992870340413
11
320.165042446692
21
44.262866576521
0
LINE
8
LAYER2
62
2
10
318.360302305587
20
42.532862812628
11
316.555562164481
21
40.802859048735
0
LINE
8
LAYER2
62
2
10
314.750822023376
20
39.072855284843
11
312.946081882271
21
37.342851520950
0
LINE
8
LAYER2
62
2
10
311.141341741165
20
35.612847757058
11
309.336601600060
21
33.882843993165
0
LINE
8
LAYER2
62
2
10
307.531861458954
20
32.152840229272
11
305.727121317849
21
30.422836465380
0
LINE
8
LAYER2
62
2
10
303.922381176743
20
28.692832701487
11
302.117641035638
21
26.962828937595
0
LINE
8
LAYER2
62
2
10
300.312900894532
20
25.232825173702
11
298.508160753427
21
23.502821409809
0
LINE
8
LAYER2
62
2
10
296.703420612321
20
21.772817645917
11
294.898680471216
21
20.042813882024
0
LINE
8
LAYER2
62
2
10
293.093940330110
20
18.312810118132
11
291.289200189005
21
16.582806354239
0
LINE
8
LAYER2
62
2
10
289.484460047899
20
14.852802590346
11
288.100457036785
21
16.296594703231
0
LINE
8
LAYER2
62
2
10
363.899542963215
20
88.956752786720
11
365.283545974329
21
87.512960673836
0
LINE
8
LAYER2
62
2
10
288.193847902102
20
11.612046924837
11
290.556732408221
21
12.428610952176
0
LINE
8
LAYER2
62
2
10
292.919616914339
20
13.245174979516
11
295.282501420458
21
14.061739006855
0
LINE
8
LAYER2
62
2
10
297.645385926577
20
14.878303034194
11
300.008270432695
21
15.694867061534
0
LINE
8
LAYER2
62
2
10
302.371154938814
20
16.511431088873
11
304.734039444933
21
17.327995116212
0
LINE
8
LAYER2
62
2
10
307.096923951051
20
18.144559143551
11
309.459808457170
21
18.961123170891
0
LINE
8
LAYER2
62
2
10
311.822692963288
20
19.777687198230
11
314.185577469407
21
20.594251225569
0
LINE
8
LAYER2
62
2
10
316.548461975526
20
21.410815252909
11
318.911346481644
21
22.227379280248
0
LINE
8
LAYER2
62
2
10
321.274230987763
20
23.043943307587
11
323.637115493882
21
23.860507334926
0
LINE
8
LAYER2
62
2
10
326.000000000000
20
24.677071362266
11
328.362884506119
21
25.493635389605
0
LINE
8
LAYER2
62
2
10
330.725769012237
20
26.310199416944
11
333.088653518356
21
27.126763444284
0
LINE
8
LAYER2
62
2
10
335.451538024475
20
27.943327471623
11
337.814422530593
21
28.759891498962
0
LINE
8
LAYER2
62
2
10
340.177307036712
20
29.576455526301
11
342.540191542831
21
30.393019553641
0
LINE
8
LAYER2
62
2
10
344.903076048949
20
31.209583580980
11
347.265960555068
21
32.026147608319
0
LINE
8
LAYER2
62
2
10
349.628845061187
20
32.842711635659
11
351.991729567305
21
33.659275662998
0
LINE
8
LAYER2
62
2
10
354.354614073424
20
34.475839690337
11
356.717498579542
21
35.292403717677
0
LINE
8
LAYER2
62
2
10
359.080383085661
20
36.108967745016
11
361.443267591780
21
36.925531772355
0
LINE
8
LAYER2
62
2
10
364.459403319769
20
35.851788194800
11
362.096518813651
21
35.035224167460
0
LINE
8
LAYER2
62
2
10
359.733634307532
20
34.218660140121
11
357.370749801413
21
33.402096112782
0
LINE
8
LAYER2
62
2
10
355.007865295295
20
32.585532085442
11
352.644980789176
21
31.768968058103
0
LINE
8
LAYER2
62
2
10
350.282096283058
20
30.952404030764
11
347.919211776939
21
30.135840003424
0
LINE
8
LAYER2
62
2
10
345.556327270820
20
29.319275976085
11
343.193442764702
21
28.502711948746
0
LINE
8
LAYER2
62
2
10
340.830558258583
20
27.686147921407
11
338.467673752464
21
26.869583894067
0
LINE
8
LAYER2
62
2
10
336.104789246346
20
26.053019866728
11
333.741904740227
21
25.236455839389
0
LINE
8
LAYER2
62
2
10
331.379020234109
20
24.419891812049
11
329.016135727990
21
23.603327784710
0
LINE
8
LAYER2
62
2
10
326.653251221871
20
22.786763757371
11
324.290366715753
21
21.970199730032
0
LINE
8
LAYER2
62
2
10
321.927482209634
20
21.153635702692
11
319.564597703515
21
20.337071675353
0
LINE
8
LAYER2
62
2
10
317.201713197397
20
19.520507648014
11
314.838828691278
21
18.703943620674
0
LINE
8
LAYER2
62
2
10
312.475944185159
20
17.887379593335
11
310.113059679041
21
17.070815565996
0
LINE
8
LAYER2
62
2
10
307.750175172922
20
16.254251538656
11
305.387290666804
21
15.437687511317
0
LINE
8
LAYER2
62
2
10
303.024406160685
20
14.621123483978
11
300.661521654566
21
13.804559456639
0
LINE
8
LAYER2
62
2
10
298.298637148448
20
12.987995429299
11
295.935752642329
21
12.171431401960
0
LINE
8
LAYER2
62
2
10
293.572868136210
20
11.354867374621
11
291.209983630092
21
10.538303347281
0
LINE
8
LAYER2
62
2
10
288.847099123974
20
9.721739319942
11
288.193847902102
21
11.612046924837
0
LINE
8
LAYER2
62
2
10
363.806152097898
20
37.742095799694
11
364.459403319769
21
35.851788194800
0
LINE
8
LAYER3
62
3
10
367.500000000000
20
104.500007629395
11
371.500000000000
21
104.500007629395
0
LINE
8
LAYER3
62
3
10
371.500000000000
20
104.500007629395
11
371.500000000000
21
0.000007629395
0
LINE
8
LAYER3
62
3
10
371.500000000000
20
0.000007629395
11
367.500000000000
21
0.000007629395
0
LINE
8
LAYER3
62
3
10
367.500000000000
20
0.000007629395
11
367.500000000000
21
104.500007629395
0
LINE
8
LAYER3
62
3
10
0.500000000000
20
100.500007629395
11
0.500000000000
21
104.500007629395
0
LINE
8
LAYER3
62
3
10
0.500000000000
20
104.500007629395
11
371.500000000000
21
104.500007629395
0
LINE
8
LAYER3
62
3
10
371.500000000000
20
104.500007629395
11
371.500000000000
21
100.500007629395
0
LINE
8
LAYER3
62
3
10
371.500000000000
20
100.500007629395
11
0.500000000000
21
100.500007629395
0
LINE
8
LAYER3
62
3
10
4.500000000000
20
0.000000000000
11
0.500000000000
21
0.000000000000
0
LINE
8
LAYER3
62
3
10
0.500000000000
20
0.000000000000
11
0.500000000000
21
104.500007629395
0
LINE
8
LAYER3
62
3
10
0.500000000000
20
104.500007629395
11
4.500000000000
21
104.500007629395
0
LINE
8
LAYER3
62
3
10
4.500000000000
20
104.500007629395
11
4.500000000000
21
0.000000000000
0
LINE
8
LAYER3
62
3
10
280.500000000000
20
11.500007629395
11
284.500000000000
21
11.500007629395
0
LINE
8
LAYER3
62
3
10
284.500000000000
20
11.500007629395
11
284.500000000000
21
8.000007629395
0
LINE
8
LAYER3
62
3
10
284.500000000000
20
8.000007629395
11
280.500000000000
21
8.000007629395
0
LINE
8
LAYER3
62
3
10
280.500000000000
20
8.000007629395
11
280.500000000000
21
11.500007629395
0
LINE
8
LAYER3
62
3
10
93.500000000000
20
13.500007629395
11
93.500000000000
21
17.500007629395
0
LINE
8
LAYER3
62
3
10
93.500000000000
20
17.500007629395
11
278.500000000000
21
17.500007629395
0
LINE
8
LAYER3
62
3
10
278.500000000000
20
17.500007629395
11
278.500000000000
21
13.500007629395
0
LINE
8
LAYER3
62
3
10
278.500000000000
20
13.500007629395
11
93.500000000000
21
13.500007629395
0
LINE
8
LAYER3
62
3
10
91.500000000000
20
0.000000000000
11
87.500000000000
21
0.000000000000
0
LINE
8
LAYER3
62
3
10
87.500000000000
20
0.000000000000
11
87.500000000000
21
11.500007629395
0
LINE
8
LAYER3
62
3
10
87.500000000000
20
11.500007629395
11
91.500000000000
21
11.500007629395
0
LINE
8
LAYER3
62
3
10
91.500000000000
20
11.500007629395
11
91.500000000000
21
0.000000000000
0
LINE
8
LAYER4
62
4
10
278.500000000000
20
8.000007629395
11
286.500000000000
21
8.000007629395
0
LINE
8
LAYER4
62
4
10
286.500000000000
20
8.000007629395
11
286.500000000000
21
0.000007629395
0
LINE
8
LAYER4
62
4
10
286.500000000000
20
0.000007629395
11
278.500000000000
21
0.000007629395
0
LINE
8
LAYER4
62
4
10
278.500000000000
20
0.000007629395
11
278.500000000000
21
8.000007629395
0
LINE
8
LAYER4
62
4
10
278.500000000000
20
11.500007629395
11
278.500000000000
21
19.500007629395
0
LINE
8
LAYER4
62
4
10
278.500000000000
20
19.500007629395
11
286.500000000000
21
19.500007629395
0
LINE
8
LAYER4
62
4
10
286.500000000000
20
19.500007629395
11
286.500000000000
21
11.500007629395
0
LINE
8
LAYER4
62
4
10
286.500000000000
20
11.500007629395
11
278.500000000000
21
11.500007629395
0
LINE
8
LAYER4
62
4
10
93.500000000000
20
11.500007629395
11
85.500000000000
21
11.500007629395
0
LINE
8
LAYER4
62
4
10
85.500000000000
20
11.500007629395
11
85.500000000000
21
19.500007629395
0
LINE
8
LAYER4
62
4
10
85.500000000000
20
19.500007629395
11
93.500000000000
21
19.500007629395
0
LINE
8
LAYER4
62
4
10
93.500000000000
20
19.500007629395
11
93.500000000000
21
11.500007629395
0
LINE
8
LAYER4
62
4
10
182.000000000000
20
8.500007629395
11
182.000000000000
21
13.500007629395
0
LINE
8
LAYER4
62
4
10
182.000000000000
20
13.500007629395
11
190.000000000000
21
13.500007629395
0
LINE
8
LAYER4
62
4
10
190.000000000000
20
13.500007629395
11
190.000000000000
21
8.500007629395
0
LINE
8
LAYER4
62
4
10
190.000000000000
20
8.500007629395
11
182.000000000000
21
8.500007629395
0
LINE
8
LAYER5
62
5
10
364.000000000000
20
97.000007629395
11
368.000000000000
21
97.000007629395
0
LINE
8
LAYER5
62
5
10
368.000000000000
20
97.000007629395
11
368.000000000000
21
0.000007629395
0
LINE
8
LAYER5
62
5
10
368.000000000000
20
0.000007629395
11
364.000000000000
21
0.000007629395
0
LINE
8
LAYER5
62
5
10
364.000000000000
20
0.000007629395
11
364.000000000000
21
97.000007629395
0
LINE
8
LAYER5
62
5
10
3.500000000000
20
97.000007629395
11
3.500000000000
21
101.000007629395
0
LINE
8
LAYER5
62
5
10
3.500000000000
20
101.000007629395
11
368.500000000000
21
101.000007629395
0
LINE
8
LAYER5
62
5
10
368.500000000000
20
101.000007629395
11
368.500000000000
21
97.000007629395
0
LINE
8
LAYER5
62
5
10
368.500000000000
20
97.000007629395
11
3.500000000000
21
97.000007629395
0
LINE
8
LAYER5
62
5
10
8.000000000000
20
0.000000000000
11
4.000000000000
21
0.000000000000
0
LINE
8
LAYER5
62
5
10
4.000000000000
20
0.000000000000
11
4.000000000000
21
97.000007629395
0
LINE
8
LAYER5
62
5
10
4.000000000000
20
97.000007629395
11
8.000000000000
21
97.000007629395
0
LINE
8
LAYER5
62
5
10
8.000000000000
20
97.000007629395
11
8.000000000000
21
0.000000000000
0
LINE
8
LAYER5
62
5
10
280.500000000000
20
11.500007629395
11
284.500000000000
21
11.500007629395
0
LINE
8
LAYER5
62
5
10
284.500000000000
20
11.500007629395
11
284.500000000000
21
8.000007629395
0
LINE
8
LAYER5
62
5
10
284.500000000000
20
8.000007629395
11
280.500000000000
21
8.000007629395
0
LINE
8
LAYER5
62
5
10
280.500000000000
20
8.000007629395
11
280.500000000000
21
11.500007629395
0
LINE
8
LAYER5
62
5
10
93.500000000000
20
13.500007629395
11
93.500000000000
21
17.500007629395
0
LINE
8
LAYER5
62
5
10
93.500000000000
20
17.500007629395
11
278.500000000000
21
17.500007629395
0
LINE
8
LAYER5
62
5
10
278.500000000000
20
17.500007629395
11
278.500000000000
21
13.500007629395
0
LINE
8
LAYER5
62
5
10
278.500000000000
20
13.500007629395
11
93.500000000000
21
13.500007629395
0
LINE
8
LAYER6
62
6
10
187.000000000000
20
14.985007629395
11
187.000000000000
21
16.015007629395
0
LINE
8
LAYER6
62
6
10
187.000000000000
20
16.015007629395
11
276.500000000000
21
16.015007629395
0
LINE
8
LAYER6
62
6
10
276.500000000000
20
16.015007629395
11
276.500000000000
21
14.985007629395
0
LINE
8
LAYER6
62
6
10
276.500000000000
20
14.985007629395
11
187.000000000000
21
14.985007629395
0
LINE
8
LAYER6
62
6
10
95.500000000000
20
14.985007629395
11
95.500000000000
21
16.015007629395
0
LINE
8
LAYER6
62
6
10
95.500000000000
20
16.015007629395
11
185.000000000000
21
16.015007629395
0
LINE
8
LAYER6
62
6
10
185.000000000000
20
16.015007629395
11
185.000000000000
21
14.985007629395
0
LINE
8
LAYER6
62
6
10
185.000000000000
20
14.985007629395
11
95.500000000000
21
14.985007629395
0
LINE
8
LAYER7
62
7
10
372.000000000000
20
105.000007629395
11
372.000000000000
21
0.000007629395
0
LINE
8
LAYER7
62
7
10
372.000000000000
20
0.000007629395
11
0.000000000000
21
0.000007629395
0
LINE
8
LAYER7
62
7
10
0.000000000000
20
0.000007629395
11
0.000000000000
21
105.000007629395
0
LINE
8
LAYER7
62
7
10
0.000000000000
20
105.000007629395
11
372.000000000000
21
105.000007629395
0
LINE
8
LAYER9
62
8
10
45.569274902344
20
1.000000000000
11
45.569274902344
21
39.430732727051
0
ARC
8
LAYER9
62
8
10
65.569274902344
20
39.430732727051
40
20.000000000000
50
90.000000000000
51
180.000000000000
0
LINE
8
LAYER9
62
8
10
65.569274902344
20
59.430732727051
11
306.430725097656
21
59.430732727051
0
ARC
8
LAYER9
62
8
10
306.430725097656
20
39.430732727051
40
20.000000000000
50
0.000000000000
51
90.000000000000
0
LINE
8
LAYER9
62
8
10
326.430725097656
20
39.430732727051
11
326.430725097656
21
0.000007629395
0
LINE
8
LAYER14
62
8
10
30.794274902344
20
16.509936203054
11
31.131774902344
21
17.109936203054
0
LINE
8
LAYER14
62
8
10
31.131774902344
20
17.109936203054
11
31.131774902344
21
15.109936203054
0
LINE
8
LAYER14
62
8
10
30.906774902344
20
15.109936203054
11
31.356774902344
21
15.109936203054
0
LINE
8
LAYER14
62
8
10
30.598051706830
20
42.549728220190
11
30.766801706830
21
42.849728220190
0
LINE
8
LAYER14
62
8
10
30.766801706830
20
42.849728220190
11
31.554301706830
21
42.849728220190
0
LINE
8
LAYER14
62
8
10
31.554301706830
20
42.849728220190
11
31.723051706830
21
42.549728220190
0
LINE
8
LAYER14
62
8
10
31.723051706830
20
42.549728220190
11
31.723051706830
21
42.249728220190
0
LINE
8
LAYER14
62
8
10
31.723051706830
20
42.249728220190
11
30.598051706830
21
41.149728220190
0
LINE
8
LAYER14
62
8
10
30.598051706830
20
41.149728220190
11
30.598051706830
21
40.849728220190
0
LINE
8
LAYER14
62
8
10
30.598051706830
20
40.849728220190
11
31.723051706830
21
40.849728220190
0
LINE
8
LAYER14
62
8
10
31.723051706830
20
40.849728220190
11
31.723051706830
21
41.149728220190
0
LINE
8
LAYER14
62
8
10
57.614710501832
20
75.314818532572
11
57.727210501832
21
75.514818532572
0
LINE
8
LAYER14
62
8
10
57.727210501832
20
75.514818532572
11
58.627210501832
21
75.514818532572
0
LINE
8
LAYER14
62
8
10
58.627210501832
20
75.514818532572
11
58.739710501832
21
75.314818532572
0
LINE
8
LAYER14
62
8
10
58.739710501832
20
75.314818532572
11
58.739710501832
21
74.914818532572
0
LINE
8
LAYER14
62
8
10
58.739710501832
20
74.914818532572
11
58.627210501832
21
74.714818532572
0
LINE
8
LAYER14
62
8
10
58.627210501832
20
74.714818532572
11
57.952210501832
21
74.714818532572
0
LINE
8
LAYER14
62
8
10
58.627210501832
20
74.714818532572
11
58.739710501832
21
74.514818532572
0
LINE
8
LAYER14
62
8
10
58.739710501832
20
74.514818532572
11
58.739710501832
21
73.714818532572
0
LINE
8
LAYER14
62
8
10
58.739710501832
20
73.714818532572
11
58.627210501832
21
73.514818532572
0
LINE
8
LAYER14
62
8
10
58.627210501832
20
73.514818532572
11
57.727210501832
21
73.514818532572
0
LINE
8
LAYER14
62
8
10
57.727210501832
20
73.514818532572
11
57.614710501832
21
73.714818532572
0
LINE
8
LAYER14
62
8
10
86.527267378088
20
76.430732727051
11
86.527267378088
21
75.630732727051
0
LINE
8
LAYER14
62
8
10
86.527267378088
20
75.630732727051
11
87.652267378088
21
75.630732727051
0
LINE
8
LAYER14
62
8
10
87.652267378088
20
76.430732727051
11
87.652267378088
21
74.430732727051
0
LINE
8
LAYER14
62
8
10
112.652267378088
20
76.430732727051
11
111.527267378088
21
76.430732727051
0
LINE
8
LAYER14
62
8
10
111.527267378088
20
76.430732727051
11
111.527267378088
21
75.630732727051
0
LINE
8
LAYER14
62
8
10
111.527267378088
20
75.630732727051
11
112.483517378088
21
75.630732727051
0
LINE
8
LAYER14
62
8
10
112.483517378088
20
75.630732727051
11
112.652267378088
21
75.330732727051
0
LINE
8
LAYER14
62
8
10
112.652267378088
20
75.330732727051
11
112.652267378088
21
74.730732727051
0
LINE
8
LAYER14
62
8
10
112.652267378088
20
74.730732727051
11
112.483517378088
21
74.430732727051
0
LINE
8
LAYER14
62
8
10
112.483517378088
20
74.430732727051
11
111.696017378088
21
74.430732727051
0
LINE
8
LAYER14
62
8
10
111.696017378088
20
74.430732727051
11
111.527267378088
21
74.730732727051
0
LINE
8
LAYER14
62
8
10
137.652267378088
20
76.430732727051
11
137.483517378088
21
76.430732727051
0
LINE
8
LAYER14
62
8
10
137.483517378088
20
76.430732727051
11
136.527267378088
21
75.930732727051
0
LINE
8
LAYER14
62
8
10
136.527267378088
20
75.930732727051
11
136.527267378088
21
74.730732727051
0
LINE
8
LAYER14
62
8
10
136.527267378088
20
74.730732727051
11
136.696017378088
21
74.430732727051
0
LINE
8
LAYER14
62
8
10
136.696017378088
20
74.430732727051
11
137.483517378088
21
74.430732727051
0
LINE
8
LAYER14
62
8
10
137.483517378088
20
74.430732727051
11
137.652267378088
21
74.730732727051
0
LINE
8
LAYER14
62
8
10
137.652267378088
20
74.730732727051
11
137.652267378088
21
75.330732727051
0
LINE
8
LAYER14
62
8
10
137.652267378088
20
75.330732727051
11
137.483517378088
21
75.630732727051
0
LINE
8
LAYER14
62
8
10
137.483517378088
20
75.630732727051
11
136.527267378088
21
75.630732727051
0
LINE
8
LAYER14
62
8
10
161.527267378088
20
76.130732727051
11
161.527267378088
21
76.430732727051
0
LINE
8
LAYER14
62
8
10
161.527267378088
20
76.430732727051
11
162.652267378088
21
76.430732727051
0
LINE
8
LAYER14
62
8
10
162.652267378088
20
76.430732727051
11
162.652267378088
21
75.730732727051
0
LINE
8
LAYER14
62
8
10
162.652267378088
20
75.730732727051
11
162.089767378088
21
75.230732727051
0
LINE
8
LAYER14
62
8
10
162.089767378088
20
75.230732727051
11
162.089767378088
21
74.430732727051
0
LINE
8
LAYER14
62
8
10
186.696017378088
20
74.430732727051
11
186.527267378088
21
74.730732727051
0
LINE
8
LAYER14
62
8
10
186.527267378088
20
74.730732727051
11
186.527267378088
21
75.130732727051
0
LINE
8
LAYER14
62
8
10
186.527267378088
20
75.130732727051
11
186.696017378088
21
75.430732727051
0
LINE
8
LAYER14
62
8
10
186.696017378088
20
75.430732727051
11
187.483517378088
21
75.430732727051
0
LINE
8
LAYER14
62
8
10
187.483517378088
20
75.430732727051
11
187.652267378088
21
75.130732727051
0
LINE
8
LAYER14
62
8
10
187.652267378088
20
75.130732727051
11
187.652267378088
21
74.730732727051
0
LINE
8
LAYER14
62
8
10
187.652267378088
20
74.730732727051
11
187.483517378088
21
74.430732727051
0
LINE
8
LAYER14
62
8
10
187.483517378088
20
74.430732727051
11
186.696017378088
21
74.430732727051
0
LINE
8
LAYER14
62
8
10
186.696017378088
20
75.430732727051
11
186.527267378088
21
75.730732727051
0
LINE
8
LAYER14
62
8
10
186.527267378088
20
75.730732727051
11
186.527267378088
21
76.130732727051
0
LINE
8
LAYER14
62
8
10
186.527267378088
20
76.130732727051
11
186.696017378088
21
76.430732727051
0
LINE
8
LAYER14
62
8
10
186.696017378088
20
76.430732727051
11
187.483517378088
21
76.430732727051
0
LINE
8
LAYER14
62
8
10
187.483517378088
20
76.430732727051
11
187.652267378088
21
76.130732727051
0
LINE
8
LAYER14
62
8
10
187.652267378088
20
76.130732727051
11
187.652267378088
21
75.730732727051
0
LINE
8
LAYER14
62
8
10
187.652267378088
20
75.730732727051
11
187.483517378088
21
75.430732727051
0
LINE
8
LAYER14
62
8
10
211.527267378088
20
74.730732727051
11
211.696017378088
21
74.430732727051
0
LINE
8
LAYER14
62
8
10
211.696017378088
20
74.430732727051
11
212.483517378088
21
74.430732727051
0
LINE
8
LAYER14
62
8
10
212.483517378088
20
74.430732727051
11
212.652267378088
21
74.730732727051
0
LINE
8
LAYER14
62
8
10
212.652267378088
20
74.730732727051
11
212.652267378088
21
76.130732727051
0
LINE
8
LAYER14
62
8
10
212.652267378088
20
76.130732727051
11
212.483517378088
21
76.430732727051
0
LINE
8
LAYER14
62
8
10
212.483517378088
20
76.430732727051
11
211.696017378088
21
76.430732727051
0
LINE
8
LAYER14
62
8
10
211.696017378088
20
76.430732727051
11
211.527267378088
21
76.130732727051
0
LINE
8
LAYER14
62
8
10
211.527267378088
20
76.130732727051
11
211.527267378088
21
75.730732727051
0
LINE
8
LAYER14
62
8
10
211.527267378088
20
75.730732727051
11
211.696017378088
21
75.430732727051
0
LINE
8
LAYER14
62
8
10
211.696017378088
20
75.430732727051
11
212.652267378088
21
75.430732727051
0
LINE
8
LAYER14
62
8
10
236.752267378088
20
75.830732727051
11
237.089767378088
21
76.430732727051
0
LINE
8
LAYER14
62
8
10
237.089767378088
20
76.430732727051
11
237.089767378088
21
74.430732727051
0
LINE
8
LAYER14
62
8
10
236.864767378088
20
74.430732727051
11
237.314767378088
21
74.430732727051
0
LINE
8
LAYER14
62
8
10
238.308517378088
20
74.430732727051
11
238.871017378088
21
74.430732727051
0
LINE
8
LAYER14
62
8
10
238.871017378088
20
74.430732727051
11
239.152267378088
21
74.930732727051
0
LINE
8
LAYER14
62
8
10
239.152267378088
20
74.930732727051
11
239.152267378088
21
75.930732727051
0
LINE
8
LAYER14
62
8
10
239.152267378088
20
75.930732727051
11
238.871017378088
21
76.430732727051
0
LINE
8
LAYER14
62
8
10
238.871017378088
20
76.430732727051
11
238.308517378088
21
76.430732727051
0
LINE
8
LAYER14
62
8
10
238.308517378088
20
76.430732727051
11
238.027267378088
21
75.930732727051
0
LINE
8
LAYER14
62
8
10
238.027267378088
20
75.930732727051
11
238.027267378088
21
74.930732727051
0
LINE
8
LAYER14
62
8
10
238.027267378088
20
74.930732727051
11
238.308517378088
21
74.430732727051
0
LINE
8
LAYER14
62
8
10
261.752267378088
20
75.830732727051
11
262.089767378088
21
76.430732727051
0
LINE
8
LAYER14
62
8
10
262.089767378088
20
76.430732727051
11
262.089767378088
21
74.430732727051
0
LINE
8
LAYER14
62
8
10
261.864767378088
20
74.430732727051
11
262.314767378088
21
74.430732727051
0
LINE
8
LAYER14
62
8
10
263.252267378088
20
75.830732727051
11
263.589767378088
21
76.430732727051
0
LINE
8
LAYER14
62
8
10
263.589767378088
20
76.430732727051
11
263.589767378088
21
74.430732727051
0
LINE
8
LAYER14
62
8
10
263.364767378088
20
74.430732727051
11
263.814767378088
21
74.430732727051
0
LINE
8
LAYER14
62
8
10
286.897978031134
20
75.830732727051
11
287.235478031134
21
76.430732727051
0
LINE
8
LAYER14
62
8
10
287.235478031134
20
76.430732727051
11
287.235478031134
21
74.430732727051
0
LINE
8
LAYER14
62
8
10
287.010478031134
20
74.430732727051
11
287.460478031134
21
74.430732727051
0
LINE
8
LAYER14
62
8
10
288.172978031134
20
76.130732727051
11
288.341728031134
21
76.430732727051
0
LINE
8
LAYER14
62
8
10
288.341728031134
20
76.430732727051
11
289.129228031134
21
76.430732727051
0
LINE
8
LAYER14
62
8
10
289.129228031134
20
76.430732727051
11
289.297978031134
21
76.130732727051
0
LINE
8
LAYER14
62
8
10
289.297978031134
20
76.130732727051
11
289.297978031134
21
75.830732727051
0
LINE
8
LAYER14
62
8
10
289.297978031134
20
75.830732727051
11
288.172978031134
21
74.730732727051
0
LINE
8
LAYER14
62
8
10
288.172978031134
20
74.730732727051
11
288.172978031134
21
74.430732727051
0
LINE
8
LAYER14
62
8
10
288.172978031134
20
74.430732727051
11
289.297978031134
21
74.430732727051
0
LINE
8
LAYER14
62
8
10
289.297978031134
20
74.430732727051
11
289.297978031134
21
74.730732727051
0
LINE
8
LAYER14
62
8
10
316.387583005183
20
74.450532572792
11
316.725083005183
21
75.050532572792
0
LINE
8
LAYER14
62
8
10
316.725083005183
20
75.050532572792
11
316.725083005183
21
73.050532572792
0
LINE
8
LAYER14
62
8
10
316.500083005183
20
73.050532572792
11
316.950083005183
21
73.050532572792
0
LINE
8
LAYER14
62
8
10
317.662583005183
20
74.850532572792
11
317.775083005183
21
75.050532572792
0
LINE
8
LAYER14
62
8
10
317.775083005183
20
75.050532572792
11
318.675083005183
21
75.050532572792
0
LINE
8
LAYER14
62
8
10
318.675083005183
20
75.050532572792
11
318.787583005183
21
74.850532572792
0
LINE
8
LAYER14
62
8
10
318.787583005183
20
74.850532572792
11
318.787583005183
21
74.450532572792
0
LINE
8
LAYER14
62
8
10
318.787583005183
20
74.450532572792
11
318.675083005183
21
74.250532572792
0
LINE
8
LAYER14
62
8
10
318.675083005183
20
74.250532572792
11
318.000083005183
21
74.250532572792
0
LINE
8
LAYER14
62
8
10
318.675083005183
20
74.250532572792
11
318.787583005183
21
74.050532572792
0
LINE
8
LAYER14
62
8
10
318.787583005183
20
74.050532572792
11
318.787583005183
21
73.250532572792
0
LINE
8
LAYER14
62
8
10
318.787583005183
20
73.250532572792
11
318.675083005183
21
73.050532572792
0
LINE
8
LAYER14
62
8
10
318.675083005183
20
73.050532572792
11
317.775083005183
21
73.050532572792
0
LINE
8
LAYER14
62
8
10
317.775083005183
20
73.050532572792
11
317.662583005183
21
73.250532572792
0
LINE
8
LAYER14
62
8
10
341.655725097656
20
40.662752759165
11
341.993225097656
21
41.262752759165
0
LINE
8
LAYER14
62
8
10
341.993225097656
20
41.262752759165
11
341.993225097656
21
39.262752759165
0
LINE
8
LAYER14
62
8
10
341.768225097656
20
39.262752759165
11
342.218225097656
21
39.262752759165
0
LINE
8
LAYER14
62
8
10
342.930725097656
20
41.262752759165
11
342.930725097656
21
40.462752759165
0
LINE
8
LAYER14
62
8
10
342.930725097656
20
40.462752759165
11
344.055725097656
21
40.462752759165
0
LINE
8
LAYER14
62
8
10
344.055725097656
20
41.262752759165
11
344.055725097656
21
39.262752759165
0
LINE
8
LAYER14
62
8
10
341.655725097656
20
15.400007629395
11
341.993225097656
21
16.000007629395
0
LINE
8
LAYER14
62
8
10
341.993225097656
20
16.000007629395
11
341.993225097656
21
14.000007629395
0
LINE
8
LAYER14
62
8
10
341.768225097656
20
14.000007629395
11
342.218225097656
21
14.000007629395
0
LINE
8
LAYER14
62
8
10
344.055725097656
20
16.000007629395
11
342.930725097656
21
16.000007629395
0
LINE
8
LAYER14
62
8
10
342.930725097656
20
16.000007629395
11
342.930725097656
21
15.200007629395
0
LINE
8
LAYER14
62
8
10
342.930725097656
20
15.200007629395
11
343.886975097656
21
15.200007629395
0
LINE
8
LAYER14
62
8
10
343.886975097656
20
15.200007629395
11
344.055725097656
21
14.900007629395
0
LINE
8
LAYER14
62
8
10
344.055725097656
20
14.900007629395
11
344.055725097656
21
14.300007629395
0
LINE
8
LAYER14
62
8
10
344.055725097656
20
14.300007629395
11
343.886975097656
21
14.000007629395
0
LINE
8
LAYER14
62
8
10
343.886975097656
20
14.000007629395
11
343.099475097656
21
14.000007629395
0
LINE
8
LAYER14
62
8
10
343.099475097656
20
14.000007629395
11
342.930725097656
21
14.300007629395
0
ENDSEC
0
EOF
