0
SECTION
2
HEADER
0
ENDSEC
0
SECTION
2
TABLES
0
TABLE
2
LTYPE
70
1
0
LTYPE
2
CONTINUOUS
70
64
3
Solid line
72
65
73
0
40
0
0
ENDTAB
0
TABLE
2
LAYER
70
20
0
LAYER
2
COMPASS
70
0
62
1
6
CONTINUOUS
0
LAYER
2
LAYER1
70
0
62
1
6
CONTINUOUS
0
LAYER
2
LAYER2
70
0
62
1
6
CONTINUOUS
0
LAYER
2
LAYER3
70
0
62
1
6
CONTINUOUS
0
LAYER
2
LAYER4
70
0
62
1
6
CONTINUOUS
0
LAYER
2
LAYER5
70
0
62
1
6
CONTINUOUS
0
LAYER
2
LAYER6
70
0
62
1
6
CONTINUOUS
0
LAYER
2
LAYER7
70
0
62
1
6
CONTINUOUS
0
LAYER
2
LAYER8
70
0
62
1
6
CONTINUOUS
0
LAYER
2
LAYER9
70
0
62
1
6
CONTINUOUS
0
LAYER
2
LAYER10
70
0
62
1
6
CONTINUOUS
0
LAYER
2
LAYER11
70
0
62
1
6
CONTINUOUS
0
LAYER
2
LAYER12
70
0
62
1
6
CONTINUOUS
0
LAYER
2
LAYER13
70
0
62
1
6
CONTINUOUS
0
LAYER
2
LAYER14
70
0
62
1
6
CONTINUOUS
0
LAYER
2
LAYER15
70
0
62
1
6
CONTINUOUS
0
LAYER
2
LAYER16
70
0
62
1
6
CONTINUOUS
0
LAYER
2
LAYER17
70
0
62
1
6
CONTINUOUS
0
LAYER
2
LAYER18
70
0
62
1
6
CONTINUOUS
0
LAYER
2
LAYER19
70
0
62
1
6
CONTINUOUS
0
ENDTAB
0
ENDSEC
0
SECTION
2
BLOCKS
0
ENDSEC
0
SECTION
2
ENTITIES
0
LINE
8
LAYER1
62
1
10
97.500000000000
20
10.999992642593
11
14.500000000000
21
10.999992642593
0
LINE
8
LAYER1
62
1
10
95.500000000000
20
24.094796909434
11
95.500000000000
21
21.500000000000
0
LINE
8
LAYER1
62
1
10
95.500000000000
20
21.500000000000
11
97.500000000000
21
21.500000000000
0
LINE
8
LAYER1
62
1
10
97.500000000000
20
21.500000000000
11
97.500000000000
21
10.999992642593
0
LINE
8
LAYER1
62
1
10
14.500000000000
20
10.999992642593
11
14.500000000000
21
54.751462110760
0
LINE
8
LAYER1
62
1
10
14.500000000000
20
54.751462110760
11
95.500000000000
21
24.094796909434
0
LINE
8
LAYER1
62
1
10
97.500000000000
20
20.130163001017
11
14.500000000000
21
51.543782898671
0
LINE
8
LAYER1
62
1
10
95.500000000000
20
28.839269908952
11
95.500000000000
21
21.500000000000
0
LINE
8
LAYER1
62
1
10
95.500000000000
20
21.500000000000
11
97.500000000000
21
21.500000000000
0
LINE
8
LAYER1
62
1
10
97.500000000000
20
21.500000000000
11
97.500000000000
21
20.130163001017
0
LINE
8
LAYER1
62
1
10
14.500000000000
20
51.543782898671
11
14.500000000000
21
109.219082829674
0
LINE
8
LAYER1
62
1
10
14.500000000000
20
109.219082829674
11
95.500000000000
21
28.839269908952
0
LINE
8
LAYER1
62
1
10
95.500000000000
20
24.612840178673
11
14.500000000000
21
104.992653099396
0
LINE
8
LAYER1
62
1
10
102.501559887300
20
29.500000000000
11
95.500000000000
21
29.500000000000
0
LINE
8
LAYER1
62
1
10
95.500000000000
20
29.500000000000
11
95.500000000000
21
24.612840178673
0
LINE
8
LAYER1
62
1
10
14.500000000000
20
104.992653099396
11
14.500000000000
21
110.500000000000
0
LINE
8
LAYER1
62
1
10
14.500000000000
20
110.500000000000
11
68.581050670816
21
110.500000000000
0
LINE
8
LAYER1
62
1
10
68.581050670816
20
110.500000000000
11
102.501559887300
21
29.500000000000
0
LINE
8
LAYER1
62
1
10
99.249125757050
20
29.500000000000
11
65.328616540566
21
110.500000000000
0
LINE
8
LAYER1
62
1
10
110.527267378088
20
27.500000000000
11
103.500000000000
21
27.500000000000
0
LINE
8
LAYER1
62
1
10
103.500000000000
20
27.500000000000
11
103.500000000000
21
29.500000000000
0
LINE
8
LAYER1
62
1
10
103.500000000000
20
29.500000000000
11
99.249125757050
21
29.500000000000
0
LINE
8
LAYER1
62
1
10
65.328616540566
20
110.500000000000
11
110.527267378088
21
110.500000000000
0
LINE
8
LAYER1
62
1
10
110.527267378088
20
110.500000000000
11
110.527267378088
21
27.500000000000
0
LINE
8
LAYER1
62
1
10
107.527267378088
20
27.500000000000
11
107.527267378088
21
110.500000000000
0
LINE
8
LAYER1
62
1
10
135.527267378088
20
27.500000000000
11
107.527267378088
21
27.500000000000
0
LINE
8
LAYER1
62
1
10
107.527267378088
20
110.500000000000
11
135.527267378088
21
110.500000000000
0
LINE
8
LAYER1
62
1
10
135.527267378088
20
110.500000000000
11
135.527267378088
21
27.500000000000
0
LINE
8
LAYER1
62
1
10
132.527267378088
20
27.500000000000
11
132.527267378088
21
110.500000000000
0
LINE
8
LAYER1
62
1
10
160.527267378088
20
27.500000000000
11
132.527267378088
21
27.500000000000
0
LINE
8
LAYER1
62
1
10
132.527267378088
20
110.500000000000
11
160.527267378088
21
110.500000000000
0
LINE
8
LAYER1
62
1
10
160.527267378088
20
110.500000000000
11
160.527267378088
21
27.500000000000
0
LINE
8
LAYER1
62
1
10
157.527267378088
20
27.500000000000
11
157.527267378088
21
110.500000000000
0
LINE
8
LAYER1
62
1
10
185.527267378088
20
27.500000000000
11
157.527267378088
21
27.500000000000
0
LINE
8
LAYER1
62
1
10
157.527267378088
20
110.500000000000
11
185.527267378088
21
110.500000000000
0
LINE
8
LAYER1
62
1
10
185.527267378088
20
110.500000000000
11
185.527267378088
21
27.500000000000
0
LINE
8
LAYER1
62
1
10
182.527267378088
20
27.500000000000
11
182.527267378088
21
110.500000000000
0
LINE
8
LAYER1
62
1
10
210.527267378088
20
27.500000000000
11
182.527267378088
21
27.500000000000
0
LINE
8
LAYER1
62
1
10
182.527267378088
20
110.500000000000
11
210.527267378088
21
110.500000000000
0
LINE
8
LAYER1
62
1
10
210.527267378088
20
110.500000000000
11
210.527267378088
21
27.500000000000
0
LINE
8
LAYER1
62
1
10
207.527267378088
20
27.500000000000
11
207.527267378088
21
110.500000000000
0
LINE
8
LAYER1
62
1
10
235.527267378088
20
27.500000000000
11
207.527267378088
21
27.500000000000
0
LINE
8
LAYER1
62
1
10
207.527267378088
20
110.500000000000
11
235.527267378088
21
110.500000000000
0
LINE
8
LAYER1
62
1
10
235.527267378088
20
110.500000000000
11
235.527267378088
21
27.500000000000
0
LINE
8
LAYER1
62
1
10
232.527267378088
20
27.500000000000
11
232.527267378088
21
110.500000000000
0
LINE
8
LAYER1
62
1
10
260.527267378088
20
27.500000000000
11
232.527267378088
21
27.500000000000
0
LINE
8
LAYER1
62
1
10
232.527267378088
20
110.500000000000
11
260.527267378088
21
110.500000000000
0
LINE
8
LAYER1
62
1
10
260.527267378088
20
110.500000000000
11
260.527267378088
21
27.500000000000
0
LINE
8
LAYER1
62
1
10
257.527267378088
20
27.500000000000
11
257.527267378088
21
110.500000000000
0
LINE
8
LAYER1
62
1
10
285.527267378088
20
27.500000000000
11
257.527267378088
21
27.500000000000
0
LINE
8
LAYER1
62
1
10
257.527267378088
20
110.500000000000
11
285.527267378088
21
110.500000000000
0
LINE
8
LAYER1
62
1
10
285.527267378088
20
110.500000000000
11
285.527267378088
21
27.500000000000
0
LINE
8
LAYER1
62
1
10
282.527267378088
20
27.500000000000
11
282.527267378088
21
110.500000000000
0
LINE
8
LAYER1
62
1
10
292.795942091926
20
29.500000000000
11
288.500000000000
21
29.500000000000
0
LINE
8
LAYER1
62
1
10
288.500000000000
20
29.500000000000
11
288.500000000000
21
27.500000000000
0
LINE
8
LAYER1
62
1
10
288.500000000000
20
27.500000000000
11
282.527267378088
21
27.500000000000
0
LINE
8
LAYER1
62
1
10
282.527267378088
20
110.500000000000
11
329.355320124816
21
110.500000000000
0
LINE
8
LAYER1
62
1
10
329.355320124816
20
110.500000000000
11
292.795942091926
21
29.500000000000
0
LINE
8
LAYER1
62
1
10
289.504520785833
20
29.500000000000
11
326.063898818724
21
110.500000000000
0
LINE
8
LAYER1
62
1
10
296.500000000000
20
24.592249606676
11
296.500000000000
21
29.500000000000
0
LINE
8
LAYER1
62
1
10
296.500000000000
20
29.500000000000
11
289.504520785833
21
29.500000000000
0
LINE
8
LAYER1
62
1
10
326.063898818724
20
110.500000000000
11
377.500000000000
21
110.500000000000
0
LINE
8
LAYER1
62
1
10
377.500000000000
20
110.500000000000
11
377.500000000000
21
102.609132220972
0
LINE
8
LAYER1
62
1
10
377.500000000000
20
102.609132220972
11
296.500000000000
21
24.592249606676
0
LINE
8
LAYER1
62
1
10
296.500000000000
20
28.757497755806
11
377.500000000000
21
106.774380370102
0
LINE
8
LAYER1
62
1
10
294.500000000000
20
20.252401221823
11
294.500000000000
21
21.500000000000
0
LINE
8
LAYER1
62
1
10
294.500000000000
20
21.500000000000
11
296.500000000000
21
21.500000000000
0
LINE
8
LAYER1
62
1
10
296.500000000000
20
21.500000000000
11
296.500000000000
21
28.757497755806
0
LINE
8
LAYER1
62
1
10
377.500000000000
20
106.774380370102
11
377.500000000000
21
49.096252203928
0
LINE
8
LAYER1
62
1
10
377.500000000000
20
49.096252203928
11
294.500000000000
21
20.252401221823
0
LINE
8
LAYER1
62
1
10
296.500000000000
20
24.123423080431
11
377.500000000000
21
52.272241508751
0
LINE
8
LAYER1
62
1
10
296.500000000000
20
10.000000000000
11
296.500000000000
21
18.000000000000
0
LINE
8
LAYER1
62
1
10
296.500000000000
20
18.000000000000
11
294.500000000000
21
18.000000000000
0
LINE
8
LAYER1
62
1
10
294.500000000000
20
18.000000000000
11
294.500000000000
21
21.500000000000
0
LINE
8
LAYER1
62
1
10
294.500000000000
20
21.500000000000
11
296.500000000000
21
21.500000000000
0
LINE
8
LAYER1
62
1
10
296.500000000000
20
21.500000000000
11
296.500000000000
21
24.123423080431
0
LINE
8
LAYER1
62
1
10
377.500000000000
20
52.272241508751
11
377.500000000000
21
10.000000000000
0
LINE
8
LAYER1
62
1
10
377.500000000000
20
10.000000000000
11
375.000000000000
21
10.000000000000
0
LINE
8
LAYER1
62
1
10
372.500000000000
20
10.000000000000
11
370.000000000000
21
10.000000000000
0
LINE
8
LAYER1
62
1
10
367.500000000000
20
10.000000000000
11
365.000000000000
21
10.000000000000
0
LINE
8
LAYER1
62
1
10
362.500000000000
20
10.000000000000
11
360.000000000000
21
10.000000000000
0
LINE
8
LAYER1
62
1
10
357.500000000000
20
10.000000000000
11
355.000000000000
21
10.000000000000
0
LINE
8
LAYER1
62
1
10
352.500000000000
20
10.000000000000
11
350.000000000000
21
10.000000000000
0
LINE
8
LAYER1
62
1
10
347.500000000000
20
10.000000000000
11
345.000000000000
21
10.000000000000
0
LINE
8
LAYER1
62
1
10
342.500000000000
20
10.000000000000
11
340.000000000000
21
10.000000000000
0
LINE
8
LAYER1
62
1
10
337.500000000000
20
10.000000000000
11
335.000000000000
21
10.000000000000
0
LINE
8
LAYER1
62
1
10
332.500000000000
20
10.000000000000
11
330.000000000000
21
10.000000000000
0
LINE
8
LAYER1
62
1
10
327.500000000000
20
10.000000000000
11
325.000000000000
21
10.000000000000
0
LINE
8
LAYER1
62
1
10
322.500000000000
20
10.000000000000
11
320.000000000000
21
10.000000000000
0
LINE
8
LAYER1
62
1
10
317.500000000000
20
10.000000000000
11
315.000000000000
21
10.000000000000
0
LINE
8
LAYER1
62
1
10
312.500000000000
20
10.000000000000
11
310.000000000000
21
10.000000000000
0
LINE
8
LAYER1
62
1
10
307.500000000000
20
10.000000000000
11
305.000000000000
21
10.000000000000
0
LINE
8
LAYER1
62
1
10
302.500000000000
20
10.000000000000
11
300.000000000000
21
10.000000000000
0
LINE
8
LAYER1
62
1
10
297.500000000000
20
10.000000000000
11
296.500000000000
21
10.000000000000
0
LINE
8
LAYER2
62
2
10
93.500000000000
20
13.999992642593
11
91.000000000000
21
13.999992642593
0
LINE
8
LAYER2
62
2
10
88.500000000000
20
13.999992642593
11
86.000000000000
21
13.999992642593
0
LINE
8
LAYER2
62
2
10
83.500000000000
20
13.999992642593
11
81.000000000000
21
13.999992642593
0
LINE
8
LAYER2
62
2
10
78.500000000000
20
13.999992642593
11
76.000000000000
21
13.999992642593
0
LINE
8
LAYER2
62
2
10
73.500000000000
20
13.999992642593
11
71.000000000000
21
13.999992642593
0
LINE
8
LAYER2
62
2
10
68.500000000000
20
13.999992642593
11
66.000000000000
21
13.999992642593
0
LINE
8
LAYER2
62
2
10
63.500000000000
20
13.999992642593
11
61.000000000000
21
13.999992642593
0
LINE
8
LAYER2
62
2
10
58.500000000000
20
13.999992642593
11
56.000000000000
21
13.999992642593
0
LINE
8
LAYER2
62
2
10
53.500000000000
20
13.999992642593
11
51.000000000000
21
13.999992642593
0
LINE
8
LAYER2
62
2
10
48.500000000000
20
13.999992642593
11
46.000000000000
21
13.999992642593
0
LINE
8
LAYER2
62
2
10
43.500000000000
20
13.999992642593
11
41.000000000000
21
13.999992642593
0
LINE
8
LAYER2
62
2
10
38.500000000000
20
13.999992642593
11
36.000000000000
21
13.999992642593
0
LINE
8
LAYER2
62
2
10
33.500000000000
20
13.999992642593
11
31.000000000000
21
13.999992642593
0
LINE
8
LAYER2
62
2
10
28.500000000000
20
13.999992642593
11
26.000000000000
21
13.999992642593
0
LINE
8
LAYER2
62
2
10
23.500000000000
20
13.999992642593
11
21.000000000000
21
13.999992642593
0
LINE
8
LAYER2
62
2
10
18.500000000000
20
15.999992642593
11
21.000000000000
21
15.999992642593
0
LINE
8
LAYER2
62
2
10
23.500000000000
20
15.999992642593
11
26.000000000000
21
15.999992642593
0
LINE
8
LAYER2
62
2
10
28.500000000000
20
15.999992642593
11
31.000000000000
21
15.999992642593
0
LINE
8
LAYER2
62
2
10
33.500000000000
20
15.999992642593
11
36.000000000000
21
15.999992642593
0
LINE
8
LAYER2
62
2
10
38.500000000000
20
15.999992642593
11
41.000000000000
21
15.999992642593
0
LINE
8
LAYER2
62
2
10
43.500000000000
20
15.999992642593
11
46.000000000000
21
15.999992642593
0
LINE
8
LAYER2
62
2
10
48.500000000000
20
15.999992642593
11
51.000000000000
21
15.999992642593
0
LINE
8
LAYER2
62
2
10
53.500000000000
20
15.999992642593
11
56.000000000000
21
15.999992642593
0
LINE
8
LAYER2
62
2
10
58.500000000000
20
15.999992642593
11
61.000000000000
21
15.999992642593
0
LINE
8
LAYER2
62
2
10
63.500000000000
20
15.999992642593
11
66.000000000000
21
15.999992642593
0
LINE
8
LAYER2
62
2
10
68.500000000000
20
15.999992642593
11
71.000000000000
21
15.999992642593
0
LINE
8
LAYER2
62
2
10
73.500000000000
20
15.999992642593
11
76.000000000000
21
15.999992642593
0
LINE
8
LAYER2
62
2
10
78.500000000000
20
15.999992642593
11
81.000000000000
21
15.999992642593
0
LINE
8
LAYER2
62
2
10
83.500000000000
20
15.999992642593
11
86.000000000000
21
15.999992642593
0
LINE
8
LAYER2
62
2
10
88.500000000000
20
15.999992642593
11
91.000000000000
21
15.999992642593
0
LINE
8
LAYER2
62
2
10
93.500000000000
20
15.999992642593
11
93.500000000000
21
13.999992642593
0
LINE
8
LAYER2
62
2
10
18.500000000000
20
13.999992642593
11
18.500000000000
21
15.999992642593
0
LINE
8
LAYER2
62
2
10
93.410224672024
20
24.885729533826
11
91.072085630022
21
25.770662198082
0
LINE
8
LAYER2
62
2
10
88.733946588021
20
26.655594862339
11
86.395807546019
21
27.540527526596
0
LINE
8
LAYER2
62
2
10
84.057668504018
20
28.425460190852
11
81.719529462016
21
29.310392855109
0
LINE
8
LAYER2
62
2
10
79.381390420015
20
30.195325519366
11
77.043251378013
21
31.080258183622
0
LINE
8
LAYER2
62
2
10
74.705112336012
20
31.965190847879
11
72.366973294010
21
32.850123512136
0
LINE
8
LAYER2
62
2
10
70.028834252009
20
33.735056176392
11
67.690695210007
21
34.619988840649
0
LINE
8
LAYER2
62
2
10
65.352556168006
20
35.504921504906
11
63.014417126004
21
36.389854169162
0
LINE
8
LAYER2
62
2
10
60.676278084003
20
37.274786833419
11
58.338139042001
21
38.159719497676
0
LINE
8
LAYER2
62
2
10
56.000000000000
20
39.044652161932
11
53.661860957999
21
39.929584826189
0
LINE
8
LAYER2
62
2
10
51.323721915997
20
40.814517490445
11
48.985582873996
21
41.699450154702
0
LINE
8
LAYER2
62
2
10
46.647443831994
20
42.584382818959
11
44.309304789993
21
43.469315483215
0
LINE
8
LAYER2
62
2
10
41.971165747991
20
44.354248147472
11
39.633026705990
21
45.239180811729
0
LINE
8
LAYER2
62
2
10
37.294887663988
20
46.124113475985
11
34.956748621987
21
47.009046140242
0
LINE
8
LAYER2
62
2
10
32.618609579985
20
47.893978804499
11
30.280470537984
21
48.778911468755
0
LINE
8
LAYER2
62
2
10
27.942331495982
20
49.663844133012
11
25.604192453981
21
50.548776797269
0
LINE
8
LAYER2
62
2
10
23.266053411979
20
51.433709461525
11
20.927914369978
21
52.318642125782
0
LINE
8
LAYER2
62
2
10
19.297721459382
20
55.074086023640
11
21.635860501383
21
54.189153359383
0
LINE
8
LAYER2
62
2
10
23.973999543385
20
53.304220695126
11
26.312138585386
21
52.419288030870
0
LINE
8
LAYER2
62
2
10
28.650277627387
20
51.534355366613
11
30.988416669389
21
50.649422702356
0
LINE
8
LAYER2
62
2
10
33.326555711390
20
49.764490038100
11
35.664694753392
21
48.879557373843
0
LINE
8
LAYER2
62
2
10
38.002833795393
20
47.994624709586
11
40.340972837395
21
47.109692045330
0
LINE
8
LAYER2
62
2
10
42.679111879396
20
46.224759381073
11
45.017250921398
21
45.339826716817
0
LINE
8
LAYER2
62
2
10
47.355389963399
20
44.454894052560
11
49.693529005401
21
43.569961388303
0
LINE
8
LAYER2
62
2
10
52.031668047402
20
42.685028724047
11
54.369807089404
21
41.800096059790
0
LINE
8
LAYER2
62
2
10
56.707946131405
20
40.915163395533
11
59.046085173407
21
40.030230731277
0
LINE
8
LAYER2
62
2
10
61.384224215408
20
39.145298067020
11
63.722363257410
21
38.260365402763
0
LINE
8
LAYER2
62
2
10
66.060502299411
20
37.375432738507
11
68.398641341413
21
36.490500074250
0
LINE
8
LAYER2
62
2
10
70.736780383414
20
35.605567409993
11
73.074919425416
21
34.720634745737
0
LINE
8
LAYER2
62
2
10
75.413058467417
20
33.835702081480
11
77.751197509419
21
32.950769417224
0
LINE
8
LAYER2
62
2
10
80.089336551420
20
32.065836752967
11
82.427475593422
21
31.180904088710
0
LINE
8
LAYER2
62
2
10
84.765614635423
20
30.295971424454
11
87.103753677425
21
29.411038760197
0
LINE
8
LAYER2
62
2
10
89.441892719426
20
28.526106095940
11
91.780031761428
21
27.641173431684
0
LINE
8
LAYER2
62
2
10
94.118170803429
20
26.756240767427
11
93.410224672024
21
24.885729533826
0
LINE
8
LAYER2
62
2
10
18.589775327976
20
53.203574790038
11
19.297721459382
21
55.074086023640
0
LINE
8
LAYER2
62
2
10
93.265495950794
20
31.056665186060
11
91.490948524566
21
32.817625558148
0
LINE
8
LAYER2
62
2
10
89.716401098338
20
34.578585930237
11
87.941853672109
21
36.339546302326
0
LINE
8
LAYER2
62
2
10
86.167306245881
20
38.100506674414
11
84.392758819653
21
39.861467046503
0
LINE
8
LAYER2
62
2
10
82.618211393424
20
41.622427418591
11
80.843663967196
21
43.383387790680
0
LINE
8
LAYER2
62
2
10
79.069116540968
20
45.144348162769
11
77.294569114739
21
46.905308534857
0
LINE
8
LAYER2
62
2
10
75.520021688511
20
48.666268906946
11
73.745474262283
21
50.427229279035
0
LINE
8
LAYER2
62
2
10
71.970926836055
20
52.188189651123
11
70.196379409826
21
53.949150023212
0
LINE
8
LAYER2
62
2
10
68.421831983598
20
55.710110395301
11
66.647284557370
21
57.471070767389
0
LINE
8
LAYER2
62
2
10
64.872737131141
20
59.232031139478
11
63.098189704913
21
60.992991511566
0
LINE
8
LAYER2
62
2
10
61.323642278685
20
62.753951883655
11
59.549094852457
21
64.514912255744
0
LINE
8
LAYER2
62
2
10
57.774547426228
20
66.275872627832
11
56.000000000000
21
68.036832999921
0
LINE
8
LAYER2
62
2
10
54.225452573772
20
69.797793372010
11
52.450905147543
21
71.558753744098
0
LINE
8
LAYER2
62
2
10
50.676357721315
20
73.319714116187
11
48.901810295087
21
75.080674488276
0
LINE
8
LAYER2
62
2
10
47.127262868858
20
76.841634860364
11
45.352715442630
21
78.602595232453
0
LINE
8
LAYER2
62
2
10
43.578168016402
20
80.363555604541
11
41.803620590174
21
82.124515976630
0
LINE
8
LAYER2
62
2
10
40.029073163945
20
83.885476348719
11
38.254525737717
21
85.646436720807
0
LINE
8
LAYER2
62
2
10
36.479978311489
20
87.407397092896
11
34.705430885260
21
89.168357464985
0
LINE
8
LAYER2
62
2
10
32.930883459032
20
90.929317837073
11
31.156336032804
21
92.690278209162
0
LINE
8
LAYER2
62
2
10
29.381788606576
20
94.451238581250
11
27.607241180347
21
96.212198953339
0
LINE
8
LAYER2
62
2
10
25.832693754119
20
97.973159325428
11
24.058146327891
21
99.734119697516
0
LINE
8
LAYER2
62
2
10
22.283598901662
20
101.495080069605
11
20.509051475434
21
103.256040441694
0
LINE
8
LAYER2
62
2
10
20.143272346877
20
106.436638754765
11
21.917819773105
21
104.675678382676
0
LINE
8
LAYER2
62
2
10
23.692367199333
20
102.914718010588
11
25.466914625562
21
101.153757638499
0
LINE
8
LAYER2
62
2
10
27.241462051790
20
99.392797266410
11
29.016009478018
21
97.631836894322
0
LINE
8
LAYER2
62
2
10
30.790556904247
20
95.870876522233
11
32.565104330475
21
94.109916150145
0
LINE
8
LAYER2
62
2
10
34.339651756703
20
92.348955778056
11
36.114199182931
21
90.587995405967
0
LINE
8
LAYER2
62
2
10
37.888746609160
20
88.827035033879
11
39.663294035388
21
87.066074661790
0
LINE
8
LAYER2
62
2
10
41.437841461616
20
85.305114289701
11
43.212388887845
21
83.544153917613
0
LINE
8
LAYER2
62
2
10
44.986936314073
20
81.783193545524
11
46.761483740301
21
80.022233173436
0
LINE
8
LAYER2
62
2
10
48.536031166529
20
78.261272801347
11
50.310578592758
21
76.500312429258
0
LINE
8
LAYER2
62
2
10
52.085126018986
20
74.739352057170
11
53.859673445214
21
72.978391685081
0
LINE
8
LAYER2
62
2
10
55.634220871443
20
71.217431312992
11
57.408768297671
21
69.456470940904
0
LINE
8
LAYER2
62
2
10
59.183315723899
20
67.695510568815
11
60.957863150127
21
65.934550196726
0
LINE
8
LAYER2
62
2
10
62.732410576356
20
64.173589824638
11
64.506958002584
21
62.412629452549
0
LINE
8
LAYER2
62
2
10
66.281505428812
20
60.651669080461
11
68.056052855041
21
58.890708708372
0
LINE
8
LAYER2
62
2
10
69.830600281269
20
57.129748336283
11
71.605147707497
21
55.368787964195
0
LINE
8
LAYER2
62
2
10
73.379695133726
20
53.607827592106
11
75.154242559954
21
51.846867220017
0
LINE
8
LAYER2
62
2
10
76.928789986182
20
50.085906847929
11
78.703337412410
21
48.324946475840
0
LINE
8
LAYER2
62
2
10
80.477884838639
20
46.563986103752
11
82.252432264867
21
44.803025731663
0
LINE
8
LAYER2
62
2
10
84.026979691095
20
43.042065359574
11
85.801527117324
21
41.281104987486
0
LINE
8
LAYER2
62
2
10
87.576074543552
20
39.520144615397
11
89.350621969780
21
37.759184243308
0
LINE
8
LAYER2
62
2
10
91.125169396008
20
35.998223871220
11
92.899716822237
21
34.237263499131
0
LINE
8
LAYER2
62
2
10
94.674264248465
20
32.476303127042
11
93.265495950794
21
31.056665186060
0
LINE
8
LAYER2
62
2
10
18.734504049206
20
105.017000813782
11
20.143272346877
21
106.436638754765
0
LINE
8
LAYER2
62
2
10
101.410845325188
20
32.104556404716
11
100.445172304725
21
34.410521629422
0
LINE
8
LAYER2
62
2
10
99.479499284262
20
36.716486854127
11
98.513826263799
21
39.022452078832
0
LINE
8
LAYER2
62
2
10
97.548153243336
20
41.328417303537
11
96.582480222873
21
43.634382528243
0
LINE
8
LAYER2
62
2
10
95.616807202410
20
45.940347752948
11
94.651134181947
21
48.246312977653
0
LINE
8
LAYER2
62
2
10
93.685461161484
20
50.552278202358
11
92.719788141021
21
52.858243427063
0
LINE
8
LAYER2
62
2
10
91.754115120558
20
55.164208651769
11
90.788442100095
21
57.470173876474
0
LINE
8
LAYER2
62
2
10
89.822769079632
20
59.776139101179
11
88.857096059169
21
62.082104325884
0
LINE
8
LAYER2
62
2
10
87.891423038706
20
64.388069550590
11
86.925750018243
21
66.694034775295
0
LINE
8
LAYER2
62
2
10
85.960076997780
20
69.000000000000
11
84.994403977317
21
71.305965224705
0
LINE
8
LAYER2
62
2
10
84.028730956854
20
73.611930449410
11
83.063057936391
21
75.917895674116
0
LINE
8
LAYER2
62
2
10
82.097384915928
20
78.223860898821
11
81.131711895465
21
80.529826123526
0
LINE
8
LAYER2
62
2
10
80.166038875002
20
82.835791348231
11
79.200365854539
21
85.141756572937
0
LINE
8
LAYER2
62
2
10
78.234692834076
20
87.447721797642
11
77.269019813613
21
89.753687022347
0
LINE
8
LAYER2
62
2
10
76.303346793150
20
92.059652247052
11
75.337673772687
21
94.365617471757
0
LINE
8
LAYER2
62
2
10
74.372000752224
20
96.671582696463
11
73.406327731760
21
98.977547921168
0
LINE
8
LAYER2
62
2
10
72.440654711297
20
101.283513145873
11
71.474981690834
21
103.589478370578
0
LINE
8
LAYER2
62
2
10
72.354080850135
20
106.667982011654
11
73.319753870598
21
104.362016786949
0
LINE
8
LAYER2
62
2
10
74.285426891062
20
102.056051562244
11
75.251099911525
21
99.750086337538
0
LINE
8
LAYER2
62
2
10
76.216772931988
20
97.444121112833
11
77.182445952451
21
95.138155888128
0
LINE
8
LAYER2
62
2
10
78.148118972914
20
92.832190663423
11
79.113791993377
21
90.526225438717
0
LINE
8
LAYER2
62
2
10
80.079465013840
20
88.220260214012
11
81.045138034303
21
85.914294989307
0
LINE
8
LAYER2
62
2
10
82.010811054766
20
83.608329764602
11
82.976484075229
21
81.302364539897
0
LINE
8
LAYER2
62
2
10
83.942157095692
20
78.996399315191
11
84.907830116155
21
76.690434090486
0
LINE
8
LAYER2
62
2
10
85.873503136618
20
74.384468865781
11
86.839176157081
21
72.078503641076
0
LINE
8
LAYER2
62
2
10
87.804849177544
20
69.772538416370
11
88.770522198007
21
67.466573191665
0
LINE
8
LAYER2
62
2
10
89.736195218470
20
65.160607966960
11
90.701868238933
21
62.854642742255
0
LINE
8
LAYER2
62
2
10
91.667541259396
20
60.548677517550
11
92.633214279859
21
58.242712292844
0
LINE
8
LAYER2
62
2
10
93.598887300322
20
55.936747068139
11
94.564560320785
21
53.630781843434
0
LINE
8
LAYER2
62
2
10
95.530233341248
20
51.324816618729
11
96.495906361711
21
49.018851394023
0
LINE
8
LAYER2
62
2
10
97.461579382174
20
46.712886169318
11
98.427252402637
21
44.406920944613
0
LINE
8
LAYER2
62
2
10
99.392925423100
20
42.100955719908
11
100.358598443563
21
39.794990495203
0
LINE
8
LAYER2
62
2
10
101.324271464026
20
37.489025270497
11
102.289944484489
21
35.183060045792
0
LINE
8
LAYER2
62
2
10
103.255617504953
20
32.877094821087
11
101.410845325188
21
32.104556404716
0
LINE
8
LAYER2
62
2
10
70.509308670371
20
105.895443595284
11
72.354080850135
21
106.667982011654
0
LINE
8
LAYER2
62
2
10
110.527267378088
20
31.500000000000
11
110.527267378088
21
34.000000000000
0
LINE
8
LAYER2
62
2
10
110.527267378088
20
36.500000000000
11
110.527267378088
21
39.000000000000
0
LINE
8
LAYER2
62
2
10
110.527267378088
20
41.500000000000
11
110.527267378088
21
44.000000000000
0
LINE
8
LAYER2
62
2
10
110.527267378088
20
46.500000000000
11
110.527267378088
21
49.000000000000
0
LINE
8
LAYER2
62
2
10
110.527267378088
20
51.500000000000
11
110.527267378088
21
54.000000000000
0
LINE
8
LAYER2
62
2
10
110.527267378088
20
56.500000000000
11
110.527267378088
21
59.000000000000
0
LINE
8
LAYER2
62
2
10
110.527267378088
20
61.500000000000
11
110.527267378088
21
64.000000000000
0
LINE
8
LAYER2
62
2
10
110.527267378088
20
66.500000000000
11
110.527267378088
21
69.000000000000
0
LINE
8
LAYER2
62
2
10
110.527267378088
20
71.500000000000
11
110.527267378088
21
74.000000000000
0
LINE
8
LAYER2
62
2
10
110.527267378088
20
76.500000000000
11
110.527267378088
21
79.000000000000
0
LINE
8
LAYER2
62
2
10
110.527267378088
20
81.500000000000
11
110.527267378088
21
84.000000000000
0
LINE
8
LAYER2
62
2
10
110.527267378088
20
86.500000000000
11
110.527267378088
21
89.000000000000
0
LINE
8
LAYER2
62
2
10
110.527267378088
20
91.500000000000
11
110.527267378088
21
94.000000000000
0
LINE
8
LAYER2
62
2
10
110.527267378088
20
96.500000000000
11
110.527267378088
21
99.000000000000
0
LINE
8
LAYER2
62
2
10
110.527267378088
20
101.500000000000
11
110.527267378088
21
104.000000000000
0
LINE
8
LAYER2
62
2
10
112.527267378088
20
106.500000000000
11
112.527267378088
21
104.000000000000
0
LINE
8
LAYER2
62
2
10
112.527267378088
20
101.500000000000
11
112.527267378088
21
99.000000000000
0
LINE
8
LAYER2
62
2
10
112.527267378088
20
96.500000000000
11
112.527267378088
21
94.000000000000
0
LINE
8
LAYER2
62
2
10
112.527267378088
20
91.500000000000
11
112.527267378088
21
89.000000000000
0
LINE
8
LAYER2
62
2
10
112.527267378088
20
86.500000000000
11
112.527267378088
21
84.000000000000
0
LINE
8
LAYER2
62
2
10
112.527267378088
20
81.500000000000
11
112.527267378088
21
79.000000000000
0
LINE
8
LAYER2
62
2
10
112.527267378088
20
76.500000000000
11
112.527267378088
21
74.000000000000
0
LINE
8
LAYER2
62
2
10
112.527267378088
20
71.500000000000
11
112.527267378088
21
69.000000000000
0
LINE
8
LAYER2
62
2
10
112.527267378088
20
66.500000000000
11
112.527267378088
21
64.000000000000
0
LINE
8
LAYER2
62
2
10
112.527267378088
20
61.500000000000
11
112.527267378088
21
59.000000000000
0
LINE
8
LAYER2
62
2
10
112.527267378088
20
56.500000000000
11
112.527267378088
21
54.000000000000
0
LINE
8
LAYER2
62
2
10
112.527267378088
20
51.500000000000
11
112.527267378088
21
49.000000000000
0
LINE
8
LAYER2
62
2
10
112.527267378088
20
46.500000000000
11
112.527267378088
21
44.000000000000
0
LINE
8
LAYER2
62
2
10
112.527267378088
20
41.500000000000
11
112.527267378088
21
39.000000000000
0
LINE
8
LAYER2
62
2
10
112.527267378088
20
36.500000000000
11
112.527267378088
21
34.000000000000
0
LINE
8
LAYER2
62
2
10
112.527267378088
20
31.500000000000
11
110.527267378088
21
31.500000000000
0
LINE
8
LAYER2
62
2
10
110.527267378088
20
106.500000000000
11
112.527267378088
21
106.500000000000
0
LINE
8
LAYER2
62
2
10
135.527267378088
20
31.500000000000
11
135.527267378088
21
34.000000000000
0
LINE
8
LAYER2
62
2
10
135.527267378088
20
36.500000000000
11
135.527267378088
21
39.000000000000
0
LINE
8
LAYER2
62
2
10
135.527267378088
20
41.500000000000
11
135.527267378088
21
44.000000000000
0
LINE
8
LAYER2
62
2
10
135.527267378088
20
46.500000000000
11
135.527267378088
21
49.000000000000
0
LINE
8
LAYER2
62
2
10
135.527267378088
20
51.500000000000
11
135.527267378088
21
54.000000000000
0
LINE
8
LAYER2
62
2
10
135.527267378088
20
56.500000000000
11
135.527267378088
21
59.000000000000
0
LINE
8
LAYER2
62
2
10
135.527267378088
20
61.500000000000
11
135.527267378088
21
64.000000000000
0
LINE
8
LAYER2
62
2
10
135.527267378088
20
66.500000000000
11
135.527267378088
21
69.000000000000
0
LINE
8
LAYER2
62
2
10
135.527267378088
20
71.500000000000
11
135.527267378088
21
74.000000000000
0
LINE
8
LAYER2
62
2
10
135.527267378088
20
76.500000000000
11
135.527267378088
21
79.000000000000
0
LINE
8
LAYER2
62
2
10
135.527267378088
20
81.500000000000
11
135.527267378088
21
84.000000000000
0
LINE
8
LAYER2
62
2
10
135.527267378088
20
86.500000000000
11
135.527267378088
21
89.000000000000
0
LINE
8
LAYER2
62
2
10
135.527267378088
20
91.500000000000
11
135.527267378088
21
94.000000000000
0
LINE
8
LAYER2
62
2
10
135.527267378088
20
96.500000000000
11
135.527267378088
21
99.000000000000
0
LINE
8
LAYER2
62
2
10
135.527267378088
20
101.500000000000
11
135.527267378088
21
104.000000000000
0
LINE
8
LAYER2
62
2
10
137.527267378088
20
106.500000000000
11
137.527267378088
21
104.000000000000
0
LINE
8
LAYER2
62
2
10
137.527267378088
20
101.500000000000
11
137.527267378088
21
99.000000000000
0
LINE
8
LAYER2
62
2
10
137.527267378088
20
96.500000000000
11
137.527267378088
21
94.000000000000
0
LINE
8
LAYER2
62
2
10
137.527267378088
20
91.500000000000
11
137.527267378088
21
89.000000000000
0
LINE
8
LAYER2
62
2
10
137.527267378088
20
86.500000000000
11
137.527267378088
21
84.000000000000
0
LINE
8
LAYER2
62
2
10
137.527267378088
20
81.500000000000
11
137.527267378088
21
79.000000000000
0
LINE
8
LAYER2
62
2
10
137.527267378088
20
76.500000000000
11
137.527267378088
21
74.000000000000
0
LINE
8
LAYER2
62
2
10
137.527267378088
20
71.500000000000
11
137.527267378088
21
69.000000000000
0
LINE
8
LAYER2
62
2
10
137.527267378088
20
66.500000000000
11
137.527267378088
21
64.000000000000
0
LINE
8
LAYER2
62
2
10
137.527267378088
20
61.500000000000
11
137.527267378088
21
59.000000000000
0
LINE
8
LAYER2
62
2
10
137.527267378088
20
56.500000000000
11
137.527267378088
21
54.000000000000
0
LINE
8
LAYER2
62
2
10
137.527267378088
20
51.500000000000
11
137.527267378088
21
49.000000000000
0
LINE
8
LAYER2
62
2
10
137.527267378088
20
46.500000000000
11
137.527267378088
21
44.000000000000
0
LINE
8
LAYER2
62
2
10
137.527267378088
20
41.500000000000
11
137.527267378088
21
39.000000000000
0
LINE
8
LAYER2
62
2
10
137.527267378088
20
36.500000000000
11
137.527267378088
21
34.000000000000
0
LINE
8
LAYER2
62
2
10
137.527267378088
20
31.500000000000
11
135.527267378088
21
31.500000000000
0
LINE
8
LAYER2
62
2
10
135.527267378088
20
106.500000000000
11
137.527267378088
21
106.500000000000
0
LINE
8
LAYER2
62
2
10
160.527267378088
20
31.500000000000
11
160.527267378088
21
34.000000000000
0
LINE
8
LAYER2
62
2
10
160.527267378088
20
36.500000000000
11
160.527267378088
21
39.000000000000
0
LINE
8
LAYER2
62
2
10
160.527267378088
20
41.500000000000
11
160.527267378088
21
44.000000000000
0
LINE
8
LAYER2
62
2
10
160.527267378088
20
46.500000000000
11
160.527267378088
21
49.000000000000
0
LINE
8
LAYER2
62
2
10
160.527267378088
20
51.500000000000
11
160.527267378088
21
54.000000000000
0
LINE
8
LAYER2
62
2
10
160.527267378088
20
56.500000000000
11
160.527267378088
21
59.000000000000
0
LINE
8
LAYER2
62
2
10
160.527267378088
20
61.500000000000
11
160.527267378088
21
64.000000000000
0
LINE
8
LAYER2
62
2
10
160.527267378088
20
66.500000000000
11
160.527267378088
21
69.000000000000
0
LINE
8
LAYER2
62
2
10
160.527267378088
20
71.500000000000
11
160.527267378088
21
74.000000000000
0
LINE
8
LAYER2
62
2
10
160.527267378088
20
76.500000000000
11
160.527267378088
21
79.000000000000
0
LINE
8
LAYER2
62
2
10
160.527267378088
20
81.500000000000
11
160.527267378088
21
84.000000000000
0
LINE
8
LAYER2
62
2
10
160.527267378088
20
86.500000000000
11
160.527267378088
21
89.000000000000
0
LINE
8
LAYER2
62
2
10
160.527267378088
20
91.500000000000
11
160.527267378088
21
94.000000000000
0
LINE
8
LAYER2
62
2
10
160.527267378088
20
96.500000000000
11
160.527267378088
21
99.000000000000
0
LINE
8
LAYER2
62
2
10
160.527267378088
20
101.500000000000
11
160.527267378088
21
104.000000000000
0
LINE
8
LAYER2
62
2
10
162.527267378088
20
106.500000000000
11
162.527267378088
21
104.000000000000
0
LINE
8
LAYER2
62
2
10
162.527267378088
20
101.500000000000
11
162.527267378088
21
99.000000000000
0
LINE
8
LAYER2
62
2
10
162.527267378088
20
96.500000000000
11
162.527267378088
21
94.000000000000
0
LINE
8
LAYER2
62
2
10
162.527267378088
20
91.500000000000
11
162.527267378088
21
89.000000000000
0
LINE
8
LAYER2
62
2
10
162.527267378088
20
86.500000000000
11
162.527267378088
21
84.000000000000
0
LINE
8
LAYER2
62
2
10
162.527267378088
20
81.500000000000
11
162.527267378088
21
79.000000000000
0
LINE
8
LAYER2
62
2
10
162.527267378088
20
76.500000000000
11
162.527267378088
21
74.000000000000
0
LINE
8
LAYER2
62
2
10
162.527267378088
20
71.500000000000
11
162.527267378088
21
69.000000000000
0
LINE
8
LAYER2
62
2
10
162.527267378088
20
66.500000000000
11
162.527267378088
21
64.000000000000
0
LINE
8
LAYER2
62
2
10
162.527267378088
20
61.500000000000
11
162.527267378088
21
59.000000000000
0
LINE
8
LAYER2
62
2
10
162.527267378088
20
56.500000000000
11
162.527267378088
21
54.000000000000
0
LINE
8
LAYER2
62
2
10
162.527267378088
20
51.500000000000
11
162.527267378088
21
49.000000000000
0
LINE
8
LAYER2
62
2
10
162.527267378088
20
46.500000000000
11
162.527267378088
21
44.000000000000
0
LINE
8
LAYER2
62
2
10
162.527267378088
20
41.500000000000
11
162.527267378088
21
39.000000000000
0
LINE
8
LAYER2
62
2
10
162.527267378088
20
36.500000000000
11
162.527267378088
21
34.000000000000
0
LINE
8
LAYER2
62
2
10
162.527267378088
20
31.500000000000
11
160.527267378088
21
31.500000000000
0
LINE
8
LAYER2
62
2
10
160.527267378088
20
106.500000000000
11
162.527267378088
21
106.500000000000
0
LINE
8
LAYER2
62
2
10
185.527267378088
20
31.500000000000
11
185.527267378088
21
34.000000000000
0
LINE
8
LAYER2
62
2
10
185.527267378088
20
36.500000000000
11
185.527267378088
21
39.000000000000
0
LINE
8
LAYER2
62
2
10
185.527267378088
20
41.500000000000
11
185.527267378088
21
44.000000000000
0
LINE
8
LAYER2
62
2
10
185.527267378088
20
46.500000000000
11
185.527267378088
21
49.000000000000
0
LINE
8
LAYER2
62
2
10
185.527267378088
20
51.500000000000
11
185.527267378088
21
54.000000000000
0
LINE
8
LAYER2
62
2
10
185.527267378088
20
56.500000000000
11
185.527267378088
21
59.000000000000
0
LINE
8
LAYER2
62
2
10
185.527267378088
20
61.500000000000
11
185.527267378088
21
64.000000000000
0
LINE
8
LAYER2
62
2
10
185.527267378088
20
66.500000000000
11
185.527267378088
21
69.000000000000
0
LINE
8
LAYER2
62
2
10
185.527267378088
20
71.500000000000
11
185.527267378088
21
74.000000000000
0
LINE
8
LAYER2
62
2
10
185.527267378088
20
76.500000000000
11
185.527267378088
21
79.000000000000
0
LINE
8
LAYER2
62
2
10
185.527267378088
20
81.500000000000
11
185.527267378088
21
84.000000000000
0
LINE
8
LAYER2
62
2
10
185.527267378088
20
86.500000000000
11
185.527267378088
21
89.000000000000
0
LINE
8
LAYER2
62
2
10
185.527267378088
20
91.500000000000
11
185.527267378088
21
94.000000000000
0
LINE
8
LAYER2
62
2
10
185.527267378088
20
96.500000000000
11
185.527267378088
21
99.000000000000
0
LINE
8
LAYER2
62
2
10
185.527267378088
20
101.500000000000
11
185.527267378088
21
104.000000000000
0
LINE
8
LAYER2
62
2
10
187.527267378088
20
106.500000000000
11
187.527267378088
21
104.000000000000
0
LINE
8
LAYER2
62
2
10
187.527267378088
20
101.500000000000
11
187.527267378088
21
99.000000000000
0
LINE
8
LAYER2
62
2
10
187.527267378088
20
96.500000000000
11
187.527267378088
21
94.000000000000
0
LINE
8
LAYER2
62
2
10
187.527267378088
20
91.500000000000
11
187.527267378088
21
89.000000000000
0
LINE
8
LAYER2
62
2
10
187.527267378088
20
86.500000000000
11
187.527267378088
21
84.000000000000
0
LINE
8
LAYER2
62
2
10
187.527267378088
20
81.500000000000
11
187.527267378088
21
79.000000000000
0
LINE
8
LAYER2
62
2
10
187.527267378088
20
76.500000000000
11
187.527267378088
21
74.000000000000
0
LINE
8
LAYER2
62
2
10
187.527267378088
20
71.500000000000
11
187.527267378088
21
69.000000000000
0
LINE
8
LAYER2
62
2
10
187.527267378088
20
66.500000000000
11
187.527267378088
21
64.000000000000
0
LINE
8
LAYER2
62
2
10
187.527267378088
20
61.500000000000
11
187.527267378088
21
59.000000000000
0
LINE
8
LAYER2
62
2
10
187.527267378088
20
56.500000000000
11
187.527267378088
21
54.000000000000
0
LINE
8
LAYER2
62
2
10
187.527267378088
20
51.500000000000
11
187.527267378088
21
49.000000000000
0
LINE
8
LAYER2
62
2
10
187.527267378088
20
46.500000000000
11
187.527267378088
21
44.000000000000
0
LINE
8
LAYER2
62
2
10
187.527267378088
20
41.500000000000
11
187.527267378088
21
39.000000000000
0
LINE
8
LAYER2
62
2
10
187.527267378088
20
36.500000000000
11
187.527267378088
21
34.000000000000
0
LINE
8
LAYER2
62
2
10
187.527267378088
20
31.500000000000
11
185.527267378088
21
31.500000000000
0
LINE
8
LAYER2
62
2
10
185.527267378088
20
106.500000000000
11
187.527267378088
21
106.500000000000
0
LINE
8
LAYER2
62
2
10
210.527267378088
20
31.500000000000
11
210.527267378088
21
34.000000000000
0
LINE
8
LAYER2
62
2
10
210.527267378088
20
36.500000000000
11
210.527267378088
21
39.000000000000
0
LINE
8
LAYER2
62
2
10
210.527267378088
20
41.500000000000
11
210.527267378088
21
44.000000000000
0
LINE
8
LAYER2
62
2
10
210.527267378088
20
46.500000000000
11
210.527267378088
21
49.000000000000
0
LINE
8
LAYER2
62
2
10
210.527267378088
20
51.500000000000
11
210.527267378088
21
54.000000000000
0
LINE
8
LAYER2
62
2
10
210.527267378088
20
56.500000000000
11
210.527267378088
21
59.000000000000
0
LINE
8
LAYER2
62
2
10
210.527267378088
20
61.500000000000
11
210.527267378088
21
64.000000000000
0
LINE
8
LAYER2
62
2
10
210.527267378088
20
66.500000000000
11
210.527267378088
21
69.000000000000
0
LINE
8
LAYER2
62
2
10
210.527267378088
20
71.500000000000
11
210.527267378088
21
74.000000000000
0
LINE
8
LAYER2
62
2
10
210.527267378088
20
76.500000000000
11
210.527267378088
21
79.000000000000
0
LINE
8
LAYER2
62
2
10
210.527267378088
20
81.500000000000
11
210.527267378088
21
84.000000000000
0
LINE
8
LAYER2
62
2
10
210.527267378088
20
86.500000000000
11
210.527267378088
21
89.000000000000
0
LINE
8
LAYER2
62
2
10
210.527267378088
20
91.500000000000
11
210.527267378088
21
94.000000000000
0
LINE
8
LAYER2
62
2
10
210.527267378088
20
96.500000000000
11
210.527267378088
21
99.000000000000
0
LINE
8
LAYER2
62
2
10
210.527267378088
20
101.500000000000
11
210.527267378088
21
104.000000000000
0
LINE
8
LAYER2
62
2
10
212.527267378088
20
106.500000000000
11
212.527267378088
21
104.000000000000
0
LINE
8
LAYER2
62
2
10
212.527267378088
20
101.500000000000
11
212.527267378088
21
99.000000000000
0
LINE
8
LAYER2
62
2
10
212.527267378088
20
96.500000000000
11
212.527267378088
21
94.000000000000
0
LINE
8
LAYER2
62
2
10
212.527267378088
20
91.500000000000
11
212.527267378088
21
89.000000000000
0
LINE
8
LAYER2
62
2
10
212.527267378088
20
86.500000000000
11
212.527267378088
21
84.000000000000
0
LINE
8
LAYER2
62
2
10
212.527267378088
20
81.500000000000
11
212.527267378088
21
79.000000000000
0
LINE
8
LAYER2
62
2
10
212.527267378088
20
76.500000000000
11
212.527267378088
21
74.000000000000
0
LINE
8
LAYER2
62
2
10
212.527267378088
20
71.500000000000
11
212.527267378088
21
69.000000000000
0
LINE
8
LAYER2
62
2
10
212.527267378088
20
66.500000000000
11
212.527267378088
21
64.000000000000
0
LINE
8
LAYER2
62
2
10
212.527267378088
20
61.500000000000
11
212.527267378088
21
59.000000000000
0
LINE
8
LAYER2
62
2
10
212.527267378088
20
56.500000000000
11
212.527267378088
21
54.000000000000
0
LINE
8
LAYER2
62
2
10
212.527267378088
20
51.500000000000
11
212.527267378088
21
49.000000000000
0
LINE
8
LAYER2
62
2
10
212.527267378088
20
46.500000000000
11
212.527267378088
21
44.000000000000
0
LINE
8
LAYER2
62
2
10
212.527267378088
20
41.500000000000
11
212.527267378088
21
39.000000000000
0
LINE
8
LAYER2
62
2
10
212.527267378088
20
36.500000000000
11
212.527267378088
21
34.000000000000
0
LINE
8
LAYER2
62
2
10
212.527267378088
20
31.500000000000
11
210.527267378088
21
31.500000000000
0
LINE
8
LAYER2
62
2
10
210.527267378088
20
106.500000000000
11
212.527267378088
21
106.500000000000
0
LINE
8
LAYER2
62
2
10
235.527267378088
20
31.500000000000
11
235.527267378088
21
34.000000000000
0
LINE
8
LAYER2
62
2
10
235.527267378088
20
36.500000000000
11
235.527267378088
21
39.000000000000
0
LINE
8
LAYER2
62
2
10
235.527267378088
20
41.500000000000
11
235.527267378088
21
44.000000000000
0
LINE
8
LAYER2
62
2
10
235.527267378088
20
46.500000000000
11
235.527267378088
21
49.000000000000
0
LINE
8
LAYER2
62
2
10
235.527267378088
20
51.500000000000
11
235.527267378088
21
54.000000000000
0
LINE
8
LAYER2
62
2
10
235.527267378088
20
56.500000000000
11
235.527267378088
21
59.000000000000
0
LINE
8
LAYER2
62
2
10
235.527267378088
20
61.500000000000
11
235.527267378088
21
64.000000000000
0
LINE
8
LAYER2
62
2
10
235.527267378088
20
66.500000000000
11
235.527267378088
21
69.000000000000
0
LINE
8
LAYER2
62
2
10
235.527267378088
20
71.500000000000
11
235.527267378088
21
74.000000000000
0
LINE
8
LAYER2
62
2
10
235.527267378088
20
76.500000000000
11
235.527267378088
21
79.000000000000
0
LINE
8
LAYER2
62
2
10
235.527267378088
20
81.500000000000
11
235.527267378088
21
84.000000000000
0
LINE
8
LAYER2
62
2
10
235.527267378088
20
86.500000000000
11
235.527267378088
21
89.000000000000
0
LINE
8
LAYER2
62
2
10
235.527267378088
20
91.500000000000
11
235.527267378088
21
94.000000000000
0
LINE
8
LAYER2
62
2
10
235.527267378088
20
96.500000000000
11
235.527267378088
21
99.000000000000
0
LINE
8
LAYER2
62
2
10
235.527267378088
20
101.500000000000
11
235.527267378088
21
104.000000000000
0
LINE
8
LAYER2
62
2
10
237.527267378088
20
106.500000000000
11
237.527267378088
21
104.000000000000
0
LINE
8
LAYER2
62
2
10
237.527267378088
20
101.500000000000
11
237.527267378088
21
99.000000000000
0
LINE
8
LAYER2
62
2
10
237.527267378088
20
96.500000000000
11
237.527267378088
21
94.000000000000
0
LINE
8
LAYER2
62
2
10
237.527267378088
20
91.500000000000
11
237.527267378088
21
89.000000000000
0
LINE
8
LAYER2
62
2
10
237.527267378088
20
86.500000000000
11
237.527267378088
21
84.000000000000
0
LINE
8
LAYER2
62
2
10
237.527267378088
20
81.500000000000
11
237.527267378088
21
79.000000000000
0
LINE
8
LAYER2
62
2
10
237.527267378088
20
76.500000000000
11
237.527267378088
21
74.000000000000
0
LINE
8
LAYER2
62
2
10
237.527267378088
20
71.500000000000
11
237.527267378088
21
69.000000000000
0
LINE
8
LAYER2
62
2
10
237.527267378088
20
66.500000000000
11
237.527267378088
21
64.000000000000
0
LINE
8
LAYER2
62
2
10
237.527267378088
20
61.500000000000
11
237.527267378088
21
59.000000000000
0
LINE
8
LAYER2
62
2
10
237.527267378088
20
56.500000000000
11
237.527267378088
21
54.000000000000
0
LINE
8
LAYER2
62
2
10
237.527267378088
20
51.500000000000
11
237.527267378088
21
49.000000000000
0
LINE
8
LAYER2
62
2
10
237.527267378088
20
46.500000000000
11
237.527267378088
21
44.000000000000
0
LINE
8
LAYER2
62
2
10
237.527267378088
20
41.500000000000
11
237.527267378088
21
39.000000000000
0
LINE
8
LAYER2
62
2
10
237.527267378088
20
36.500000000000
11
237.527267378088
21
34.000000000000
0
LINE
8
LAYER2
62
2
10
237.527267378088
20
31.500000000000
11
235.527267378088
21
31.500000000000
0
LINE
8
LAYER2
62
2
10
235.527267378088
20
106.500000000000
11
237.527267378088
21
106.500000000000
0
LINE
8
LAYER2
62
2
10
260.527267378088
20
31.500000000000
11
260.527267378088
21
34.000000000000
0
LINE
8
LAYER2
62
2
10
260.527267378088
20
36.500000000000
11
260.527267378088
21
39.000000000000
0
LINE
8
LAYER2
62
2
10
260.527267378088
20
41.500000000000
11
260.527267378088
21
44.000000000000
0
LINE
8
LAYER2
62
2
10
260.527267378088
20
46.500000000000
11
260.527267378088
21
49.000000000000
0
LINE
8
LAYER2
62
2
10
260.527267378088
20
51.500000000000
11
260.527267378088
21
54.000000000000
0
LINE
8
LAYER2
62
2
10
260.527267378088
20
56.500000000000
11
260.527267378088
21
59.000000000000
0
LINE
8
LAYER2
62
2
10
260.527267378088
20
61.500000000000
11
260.527267378088
21
64.000000000000
0
LINE
8
LAYER2
62
2
10
260.527267378088
20
66.500000000000
11
260.527267378088
21
69.000000000000
0
LINE
8
LAYER2
62
2
10
260.527267378088
20
71.500000000000
11
260.527267378088
21
74.000000000000
0
LINE
8
LAYER2
62
2
10
260.527267378088
20
76.500000000000
11
260.527267378088
21
79.000000000000
0
LINE
8
LAYER2
62
2
10
260.527267378088
20
81.500000000000
11
260.527267378088
21
84.000000000000
0
LINE
8
LAYER2
62
2
10
260.527267378088
20
86.500000000000
11
260.527267378088
21
89.000000000000
0
LINE
8
LAYER2
62
2
10
260.527267378088
20
91.500000000000
11
260.527267378088
21
94.000000000000
0
LINE
8
LAYER2
62
2
10
260.527267378088
20
96.500000000000
11
260.527267378088
21
99.000000000000
0
LINE
8
LAYER2
62
2
10
260.527267378088
20
101.500000000000
11
260.527267378088
21
104.000000000000
0
LINE
8
LAYER2
62
2
10
262.527267378088
20
106.500000000000
11
262.527267378088
21
104.000000000000
0
LINE
8
LAYER2
62
2
10
262.527267378088
20
101.500000000000
11
262.527267378088
21
99.000000000000
0
LINE
8
LAYER2
62
2
10
262.527267378088
20
96.500000000000
11
262.527267378088
21
94.000000000000
0
LINE
8
LAYER2
62
2
10
262.527267378088
20
91.500000000000
11
262.527267378088
21
89.000000000000
0
LINE
8
LAYER2
62
2
10
262.527267378088
20
86.500000000000
11
262.527267378088
21
84.000000000000
0
LINE
8
LAYER2
62
2
10
262.527267378088
20
81.500000000000
11
262.527267378088
21
79.000000000000
0
LINE
8
LAYER2
62
2
10
262.527267378088
20
76.500000000000
11
262.527267378088
21
74.000000000000
0
LINE
8
LAYER2
62
2
10
262.527267378088
20
71.500000000000
11
262.527267378088
21
69.000000000000
0
LINE
8
LAYER2
62
2
10
262.527267378088
20
66.500000000000
11
262.527267378088
21
64.000000000000
0
LINE
8
LAYER2
62
2
10
262.527267378088
20
61.500000000000
11
262.527267378088
21
59.000000000000
0
LINE
8
LAYER2
62
2
10
262.527267378088
20
56.500000000000
11
262.527267378088
21
54.000000000000
0
LINE
8
LAYER2
62
2
10
262.527267378088
20
51.500000000000
11
262.527267378088
21
49.000000000000
0
LINE
8
LAYER2
62
2
10
262.527267378088
20
46.500000000000
11
262.527267378088
21
44.000000000000
0
LINE
8
LAYER2
62
2
10
262.527267378088
20
41.500000000000
11
262.527267378088
21
39.000000000000
0
LINE
8
LAYER2
62
2
10
262.527267378088
20
36.500000000000
11
262.527267378088
21
34.000000000000
0
LINE
8
LAYER2
62
2
10
262.527267378088
20
31.500000000000
11
260.527267378088
21
31.500000000000
0
LINE
8
LAYER2
62
2
10
260.527267378088
20
106.500000000000
11
262.527267378088
21
106.500000000000
0
LINE
8
LAYER2
62
2
10
285.527267378088
20
31.500000000000
11
285.527267378088
21
34.000000000000
0
LINE
8
LAYER2
62
2
10
285.527267378088
20
36.500000000000
11
285.527267378088
21
39.000000000000
0
LINE
8
LAYER2
62
2
10
285.527267378088
20
41.500000000000
11
285.527267378088
21
44.000000000000
0
LINE
8
LAYER2
62
2
10
285.527267378088
20
46.500000000000
11
285.527267378088
21
49.000000000000
0
LINE
8
LAYER2
62
2
10
285.527267378088
20
51.500000000000
11
285.527267378088
21
54.000000000000
0
LINE
8
LAYER2
62
2
10
285.527267378088
20
56.500000000000
11
285.527267378088
21
59.000000000000
0
LINE
8
LAYER2
62
2
10
285.527267378088
20
61.500000000000
11
285.527267378088
21
64.000000000000
0
LINE
8
LAYER2
62
2
10
285.527267378088
20
66.500000000000
11
285.527267378088
21
69.000000000000
0
LINE
8
LAYER2
62
2
10
285.527267378088
20
71.500000000000
11
285.527267378088
21
74.000000000000
0
LINE
8
LAYER2
62
2
10
285.527267378088
20
76.500000000000
11
285.527267378088
21
79.000000000000
0
LINE
8
LAYER2
62
2
10
285.527267378088
20
81.500000000000
11
285.527267378088
21
84.000000000000
0
LINE
8
LAYER2
62
2
10
285.527267378088
20
86.500000000000
11
285.527267378088
21
89.000000000000
0
LINE
8
LAYER2
62
2
10
285.527267378088
20
91.500000000000
11
285.527267378088
21
94.000000000000
0
LINE
8
LAYER2
62
2
10
285.527267378088
20
96.500000000000
11
285.527267378088
21
99.000000000000
0
LINE
8
LAYER2
62
2
10
285.527267378088
20
101.500000000000
11
285.527267378088
21
104.000000000000
0
LINE
8
LAYER2
62
2
10
287.527267378088
20
106.500000000000
11
287.527267378088
21
104.000000000000
0
LINE
8
LAYER2
62
2
10
287.527267378088
20
101.500000000000
11
287.527267378088
21
99.000000000000
0
LINE
8
LAYER2
62
2
10
287.527267378088
20
96.500000000000
11
287.527267378088
21
94.000000000000
0
LINE
8
LAYER2
62
2
10
287.527267378088
20
91.500000000000
11
287.527267378088
21
89.000000000000
0
LINE
8
LAYER2
62
2
10
287.527267378088
20
86.500000000000
11
287.527267378088
21
84.000000000000
0
LINE
8
LAYER2
62
2
10
287.527267378088
20
81.500000000000
11
287.527267378088
21
79.000000000000
0
LINE
8
LAYER2
62
2
10
287.527267378088
20
76.500000000000
11
287.527267378088
21
74.000000000000
0
LINE
8
LAYER2
62
2
10
287.527267378088
20
71.500000000000
11
287.527267378088
21
69.000000000000
0
LINE
8
LAYER2
62
2
10
287.527267378088
20
66.500000000000
11
287.527267378088
21
64.000000000000
0
LINE
8
LAYER2
62
2
10
287.527267378088
20
61.500000000000
11
287.527267378088
21
59.000000000000
0
LINE
8
LAYER2
62
2
10
287.527267378088
20
56.500000000000
11
287.527267378088
21
54.000000000000
0
LINE
8
LAYER2
62
2
10
287.527267378088
20
51.500000000000
11
287.527267378088
21
49.000000000000
0
LINE
8
LAYER2
62
2
10
287.527267378088
20
46.500000000000
11
287.527267378088
21
44.000000000000
0
LINE
8
LAYER2
62
2
10
287.527267378088
20
41.500000000000
11
287.527267378088
21
39.000000000000
0
LINE
8
LAYER2
62
2
10
287.527267378088
20
36.500000000000
11
287.527267378088
21
34.000000000000
0
LINE
8
LAYER2
62
2
10
287.527267378088
20
31.500000000000
11
285.527267378088
21
31.500000000000
0
LINE
8
LAYER2
62
2
10
285.527267378088
20
106.500000000000
11
287.527267378088
21
106.500000000000
0
LINE
8
LAYER2
62
2
10
293.140293215835
20
30.262935327060
11
294.168763071508
21
32.541586190174
0
LINE
8
LAYER2
62
2
10
295.197232927182
20
34.820237053288
11
296.225702782856
21
37.098887916402
0
LINE
8
LAYER2
62
2
10
297.254172638529
20
39.377538779516
11
298.282642494203
21
41.656189642631
0
LINE
8
LAYER2
62
2
10
299.311112349876
20
43.934840505745
11
300.339582205550
21
46.213491368859
0
LINE
8
LAYER2
62
2
10
301.368052061224
20
48.492142231973
11
302.396521916897
21
50.770793095087
0
LINE
8
LAYER2
62
2
10
303.424991772571
20
53.049443958201
11
304.453461628245
21
55.328094821315
0
LINE
8
LAYER2
62
2
10
305.481931483918
20
57.606745684429
11
306.510401339592
21
59.885396547544
0
LINE
8
LAYER2
62
2
10
307.538871195265
20
62.164047410658
11
308.567341050939
21
64.442698273772
0
LINE
8
LAYER2
62
2
10
309.595810906613
20
66.721349136886
11
310.624280762286
21
69.000000000000
0
LINE
8
LAYER2
62
2
10
311.652750617960
20
71.278650863114
11
312.681220473634
21
73.557301726228
0
LINE
8
LAYER2
62
2
10
313.709690329307
20
75.835952589342
11
314.738160184981
21
78.114603452457
0
LINE
8
LAYER2
62
2
10
315.766630040654
20
80.393254315571
11
316.795099896328
21
82.671905178685
0
LINE
8
LAYER2
62
2
10
317.823569752002
20
84.950556041799
11
318.852039607675
21
87.229206904913
0
LINE
8
LAYER2
62
2
10
319.880509463349
20
89.507857768027
11
320.908979319022
21
91.786508631141
0
LINE
8
LAYER2
62
2
10
321.937449174696
20
94.065159494255
11
322.965919030370
21
96.343810357370
0
LINE
8
LAYER2
62
2
10
323.994388886043
20
98.622461220484
11
325.022858741717
21
100.901112083598
0
LINE
8
LAYER2
62
2
10
326.051328597391
20
103.179762946712
11
327.079798453064
21
105.458413809826
0
LINE
8
LAYER2
62
2
10
329.931188999228
20
106.914288788401
11
328.902719143555
21
104.635637925287
0
LINE
8
LAYER2
62
2
10
327.874249287881
20
102.356987062173
11
326.845779432207
21
100.078336199059
0
LINE
8
LAYER2
62
2
10
325.817309576534
20
97.799685335945
11
324.788839720860
21
95.521034472831
0
LINE
8
LAYER2
62
2
10
323.760369865187
20
93.242383609716
11
322.731900009513
21
90.963732746602
0
LINE
8
LAYER2
62
2
10
321.703430153839
20
88.685081883488
11
320.674960298166
21
86.406431020374
0
LINE
8
LAYER2
62
2
10
319.646490442492
20
84.127780157260
11
318.618020586818
21
81.849129294146
0
LINE
8
LAYER2
62
2
10
317.589550731145
20
79.570478431032
11
316.561080875471
21
77.291827567918
0
LINE
8
LAYER2
62
2
10
315.532611019798
20
75.013176704803
11
314.504141164124
21
72.734525841689
0
LINE
8
LAYER2
62
2
10
313.475671308450
20
70.455874978575
11
312.447201452777
21
68.177224115461
0
LINE
8
LAYER2
62
2
10
311.418731597103
20
65.898573252347
11
310.390261741430
21
63.619922389233
0
LINE
8
LAYER2
62
2
10
309.361791885756
20
61.341271526119
11
308.333322030082
21
59.062620663005
0
LINE
8
LAYER2
62
2
10
307.304852174409
20
56.783969799890
11
306.276382318735
21
54.505318936776
0
LINE
8
LAYER2
62
2
10
305.247912463061
20
52.226668073662
11
304.219442607388
21
49.948017210548
0
LINE
8
LAYER2
62
2
10
303.190972751714
20
47.669366347434
11
302.162502896041
21
45.390715484320
0
LINE
8
LAYER2
62
2
10
301.134033040367
20
43.112064621206
11
300.105563184693
21
40.833413758092
0
LINE
8
LAYER2
62
2
10
299.077093329020
20
38.554762894977
11
298.048623473346
21
36.276112031863
0
LINE
8
LAYER2
62
2
10
297.020153617672
20
33.997461168749
11
295.991683761999
21
31.718810305635
0
LINE
8
LAYER2
62
2
10
294.963213906326
20
29.440159442521
11
293.140293215835
21
30.262935327060
0
LINE
8
LAYER2
62
2
10
328.108268308737
20
107.737064672940
11
329.931188999228
21
106.914288788401
0
LINE
8
LAYER2
62
2
10
298.187126826310
20
26.217241897585
11
299.987739834581
21
27.951540832154
0
LINE
8
LAYER2
62
2
10
301.788352842852
20
29.685839766722
11
303.588965851123
21
31.420138701291
0
LINE
8
LAYER2
62
2
10
305.389578859394
20
33.154437635859
11
307.190191867665
21
34.888736570428
0
LINE
8
LAYER2
62
2
10
308.990804875936
20
36.623035504996
11
310.791417884207
21
38.357334439565
0
LINE
8
LAYER2
62
2
10
312.592030892478
20
40.091633374133
11
314.392643900749
21
41.825932308702
0
LINE
8
LAYER2
62
2
10
316.193256909020
20
43.560231243270
11
317.993869917291
21
45.294530177839
0
LINE
8
LAYER2
62
2
10
319.794482925561
20
47.028829112407
11
321.595095933832
21
48.763128046976
0
LINE
8
LAYER2
62
2
10
323.395708942103
20
50.497426981544
11
325.196321950374
21
52.231725916113
0
LINE
8
LAYER2
62
2
10
326.996934958645
20
53.966024850681
11
328.797547966916
21
55.700323785250
0
LINE
8
LAYER2
62
2
10
330.598160975187
20
57.434622719818
11
332.398773983458
21
59.168921654387
0
LINE
8
LAYER2
62
2
10
334.199386991729
20
60.903220588955
11
336.000000000000
21
62.637519523524
0
LINE
8
LAYER2
62
2
10
337.800613008271
20
64.371818458092
11
339.601226016542
21
66.106117392661
0
LINE
8
LAYER2
62
2
10
341.401839024813
20
67.840416327229
11
343.202452033084
21
69.574715261798
0
LINE
8
LAYER2
62
2
10
345.003065041355
20
71.309014196366
11
346.803678049626
21
73.043313130935
0
LINE
8
LAYER2
62
2
10
348.604291057897
20
74.777612065503
11
350.404904066167
21
76.511911000072
0
LINE
8
LAYER2
62
2
10
352.205517074438
20
78.246209934640
11
354.006130082709
21
79.980508869209
0
LINE
8
LAYER2
62
2
10
355.806743090980
20
81.714807803777
11
357.607356099251
21
83.449106738346
0
LINE
8
LAYER2
62
2
10
359.407969107522
20
85.183405672914
11
361.208582115793
21
86.917704607483
0
LINE
8
LAYER2
62
2
10
363.009195124064
20
88.652003542051
11
364.809808132335
21
90.386302476620
0
LINE
8
LAYER2
62
2
10
366.610421140606
20
92.120601411188
11
368.411034148877
21
93.854900345757
0
LINE
8
LAYER2
62
2
10
370.211647157148
20
95.589199280325
11
372.012260165419
21
97.323498214894
0
LINE
8
LAYER2
62
2
10
375.200312321345
20
97.617306742846
11
373.399699313074
21
95.883007808277
0
LINE
8
LAYER2
62
2
10
371.599086304803
20
94.148708873709
11
369.798473296532
21
92.414409939140
0
LINE
8
LAYER2
62
2
10
367.997860288261
20
90.680111004572
11
366.197247279990
21
88.945812070003
0
LINE
8
LAYER2
62
2
10
364.396634271719
20
87.211513135435
11
362.596021263448
21
85.477214200866
0
LINE
8
LAYER2
62
2
10
360.795408255177
20
83.742915266298
11
358.994795246906
21
82.008616331729
0
LINE
8
LAYER2
62
2
10
357.194182238635
20
80.274317397161
11
355.393569230364
21
78.540018462592
0
LINE
8
LAYER2
62
2
10
353.592956222093
20
76.805719528024
11
351.792343213822
21
75.071420593455
0
LINE
8
LAYER2
62
2
10
349.991730205551
20
73.337121658887
11
348.191117197281
21
71.602822724318
0
LINE
8
LAYER2
62
2
10
346.390504189010
20
69.868523789750
11
344.589891180739
21
68.134224855181
0
LINE
8
LAYER2
62
2
10
342.789278172468
20
66.399925920613
11
340.988665164197
21
64.665626986044
0
LINE
8
LAYER2
62
2
10
339.188052155926
20
62.931328051476
11
337.387439147655
21
61.197029116907
0
LINE
8
LAYER2
62
2
10
335.586826139384
20
59.462730182339
11
333.786213131113
21
57.728431247770
0
LINE
8
LAYER2
62
2
10
331.985600122842
20
55.994132313202
11
330.184987114571
21
54.259833378633
0
LINE
8
LAYER2
62
2
10
328.384374106300
20
52.525534444065
11
326.583761098029
21
50.791235509496
0
LINE
8
LAYER2
62
2
10
324.783148089758
20
49.056936574928
11
322.982535081487
21
47.322637640359
0
LINE
8
LAYER2
62
2
10
321.181922073216
20
45.588338705791
11
319.381309064945
21
43.854039771222
0
LINE
8
LAYER2
62
2
10
317.580696056674
20
42.119740836654
11
315.780083048404
21
40.385441902085
0
LINE
8
LAYER2
62
2
10
313.979470040133
20
38.651142967517
11
312.178857031862
21
36.916844032948
0
LINE
8
LAYER2
62
2
10
310.378244023591
20
35.182545098380
11
308.577631015320
21
33.448246163811
0
LINE
8
LAYER2
62
2
10
306.777018007049
20
31.713947229243
11
304.976404998778
21
29.979648294674
0
LINE
8
LAYER2
62
2
10
303.175791990507
20
28.245349360106
11
301.375178982236
21
26.511050425537
0
LINE
8
LAYER2
62
2
10
299.574565973965
20
24.776751490968
11
298.187126826310
21
26.217241897585
0
LINE
8
LAYER2
62
2
10
373.812873173690
20
99.057797149463
11
375.200312321345
21
97.617306742846
0
LINE
8
LAYER2
62
2
10
298.216497449228
20
21.543944578460
11
300.577966358651
21
22.364593461861
0
LINE
8
LAYER2
62
2
10
302.939435268074
20
23.185242345262
11
305.300904177497
21
24.005891228663
0
LINE
8
LAYER2
62
2
10
307.662373086921
20
24.826540112064
11
310.023841996344
21
25.647188995465
0
LINE
8
LAYER2
62
2
10
312.385310905767
20
26.467837878866
11
314.746779815190
21
27.288486762267
0
LINE
8
LAYER2
62
2
10
317.108248724614
20
28.109135645668
11
319.469717634037
21
28.929784529069
0
LINE
8
LAYER2
62
2
10
321.831186543460
20
29.750433412470
11
324.192655452883
21
30.571082295870
0
LINE
8
LAYER2
62
2
10
326.554124362307
20
31.391731179271
11
328.915593271730
21
32.212380062672
0
LINE
8
LAYER2
62
2
10
331.277062181153
20
33.033028946073
11
333.638531090576
21
33.853677829474
0
LINE
8
LAYER2
62
2
10
336.000000000000
20
34.674326712875
11
338.361468909423
21
35.494975596276
0
LINE
8
LAYER2
62
2
10
340.722937818846
20
36.315624479677
11
343.084406728269
21
37.136273363078
0
LINE
8
LAYER2
62
2
10
345.445875637693
20
37.956922246479
11
347.807344547116
21
38.777571129880
0
LINE
8
LAYER2
62
2
10
350.168813456539
20
39.598220013281
11
352.530282365962
21
40.418868896682
0
LINE
8
LAYER2
62
2
10
354.891751275386
20
41.239517780083
11
357.253220184809
21
42.060166663484
0
LINE
8
LAYER2
62
2
10
359.614689094232
20
42.880815546885
11
361.976158003655
21
43.701464430286
0
LINE
8
LAYER2
62
2
10
364.337626913079
20
44.522113313687
11
366.699095822502
21
45.342762197088
0
LINE
8
LAYER2
62
2
10
369.060564731925
20
46.163411080489
11
371.422033641348
21
46.984059963890
0
LINE
8
LAYER2
62
2
10
374.440021657493
20
45.915533719752
11
372.078552748070
21
45.094884836351
0
LINE
8
LAYER2
62
2
10
369.717083838647
20
44.274235952950
11
367.355614929223
21
43.453587069549
0
LINE
8
LAYER2
62
2
10
364.994146019800
20
42.632938186148
11
362.632677110377
21
41.812289302747
0
LINE
8
LAYER2
62
2
10
360.271208200954
20
40.991640419346
11
357.909739291530
21
40.170991535945
0
LINE
8
LAYER2
62
2
10
355.548270382107
20
39.350342652544
11
353.186801472684
21
38.529693769143
0
LINE
8
LAYER2
62
2
10
350.825332563261
20
37.709044885742
11
348.463863653837
21
36.888396002342
0
LINE
8
LAYER2
62
2
10
346.102394744414
20
36.067747118941
11
343.740925834991
21
35.247098235540
0
LINE
8
LAYER2
62
2
10
341.379456925568
20
34.426449352139
11
339.017988016144
21
33.605800468738
0
LINE
8
LAYER2
62
2
10
336.656519106721
20
32.785151585337
11
334.295050197298
21
31.964502701936
0
LINE
8
LAYER2
62
2
10
331.933581287875
20
31.143853818535
11
329.572112378451
21
30.323204935134
0
LINE
8
LAYER2
62
2
10
327.210643469028
20
29.502556051733
11
324.849174559605
21
28.681907168332
0
LINE
8
LAYER2
62
2
10
322.487705650182
20
27.861258284931
11
320.126236740758
21
27.040609401530
0
LINE
8
LAYER2
62
2
10
317.764767831335
20
26.219960518129
11
315.403298921912
21
25.399311634728
0
LINE
8
LAYER2
62
2
10
313.041830012489
20
24.578662751327
11
310.680361103065
21
23.758013867926
0
LINE
8
LAYER2
62
2
10
308.318892193642
20
22.937364984525
11
305.957423284219
21
22.116716101124
0
LINE
8
LAYER2
62
2
10
303.595954374796
20
21.296067217723
11
301.234485465372
21
20.475418334322
0
LINE
8
LAYER2
62
2
10
298.873016555948
20
19.654769450921
11
298.216497449228
21
21.543944578460
0
LINE
8
LAYER2
62
2
10
373.783502550772
20
47.804708847291
11
374.440021657493
21
45.915533719752
0
LINE
8
LAYER3
62
3
10
377.500000000000
20
114.500000000000
11
381.500000000000
21
114.500000000000
0
LINE
8
LAYER3
62
3
10
381.500000000000
20
114.500000000000
11
381.500000000000
21
10.000000000000
0
LINE
8
LAYER3
62
3
10
381.500000000000
20
10.000000000000
11
377.500000000000
21
10.000000000000
0
LINE
8
LAYER3
62
3
10
377.500000000000
20
10.000000000000
11
377.500000000000
21
114.500000000000
0
LINE
8
LAYER3
62
3
10
10.500000000000
20
110.500000000000
11
10.500000000000
21
114.500000000000
0
LINE
8
LAYER3
62
3
10
10.500000000000
20
114.500000000000
11
381.500000000000
21
114.500000000000
0
LINE
8
LAYER3
62
3
10
381.500000000000
20
114.500000000000
11
381.500000000000
21
110.500000000000
0
LINE
8
LAYER3
62
3
10
381.500000000000
20
110.500000000000
11
10.500000000000
21
110.500000000000
0
LINE
8
LAYER3
62
3
10
14.500000000000
20
9.999992370605
11
10.500000000000
21
9.999992370605
0
LINE
8
LAYER3
62
3
10
10.500000000000
20
9.999992370605
11
10.500000000000
21
114.500000000000
0
LINE
8
LAYER3
62
3
10
10.500000000000
20
114.500000000000
11
14.500000000000
21
114.500000000000
0
LINE
8
LAYER3
62
3
10
14.500000000000
20
114.500000000000
11
14.500000000000
21
9.999992370605
0
LINE
8
LAYER3
62
3
10
290.500000000000
20
21.500000000000
11
294.500000000000
21
21.500000000000
0
LINE
8
LAYER3
62
3
10
294.500000000000
20
21.500000000000
11
294.500000000000
21
18.000000000000
0
LINE
8
LAYER3
62
3
10
294.500000000000
20
18.000000000000
11
290.500000000000
21
18.000000000000
0
LINE
8
LAYER3
62
3
10
290.500000000000
20
18.000000000000
11
290.500000000000
21
21.500000000000
0
LINE
8
LAYER3
62
3
10
103.500000000000
20
23.500000000000
11
103.500000000000
21
27.500000000000
0
LINE
8
LAYER3
62
3
10
103.500000000000
20
27.500000000000
11
288.500000000000
21
27.500000000000
0
LINE
8
LAYER3
62
3
10
288.500000000000
20
27.500000000000
11
288.500000000000
21
23.500000000000
0
LINE
8
LAYER3
62
3
10
288.500000000000
20
23.500000000000
11
103.500000000000
21
23.500000000000
0
LINE
8
LAYER3
62
3
10
101.500000000000
20
9.999992370605
11
97.500000000000
21
9.999992370605
0
LINE
8
LAYER3
62
3
10
97.500000000000
20
9.999992370605
11
97.500000000000
21
21.500000000000
0
LINE
8
LAYER3
62
3
10
97.500000000000
20
21.500000000000
11
101.500000000000
21
21.500000000000
0
LINE
8
LAYER3
62
3
10
101.500000000000
20
21.500000000000
11
101.500000000000
21
9.999992370605
0
LINE
8
LAYER4
62
4
10
288.500000000000
20
18.000000000000
11
296.500000000000
21
18.000000000000
0
LINE
8
LAYER4
62
4
10
296.500000000000
20
18.000000000000
11
296.500000000000
21
10.000000000000
0
LINE
8
LAYER4
62
4
10
296.500000000000
20
10.000000000000
11
288.500000000000
21
10.000000000000
0
LINE
8
LAYER4
62
4
10
288.500000000000
20
10.000000000000
11
288.500000000000
21
18.000000000000
0
LINE
8
LAYER4
62
4
10
288.500000000000
20
21.500000000000
11
288.500000000000
21
29.500000000000
0
LINE
8
LAYER4
62
4
10
288.500000000000
20
29.500000000000
11
296.500000000000
21
29.500000000000
0
LINE
8
LAYER4
62
4
10
296.500000000000
20
29.500000000000
11
296.500000000000
21
21.500000000000
0
LINE
8
LAYER4
62
4
10
296.500000000000
20
21.500000000000
11
288.500000000000
21
21.500000000000
0
LINE
8
LAYER4
62
4
10
103.500000000000
20
21.500000000000
11
95.500000000000
21
21.500000000000
0
LINE
8
LAYER4
62
4
10
95.500000000000
20
21.500000000000
11
95.500000000000
21
29.500000000000
0
LINE
8
LAYER4
62
4
10
95.500000000000
20
29.500000000000
11
103.500000000000
21
29.500000000000
0
LINE
8
LAYER4
62
4
10
103.500000000000
20
29.500000000000
11
103.500000000000
21
21.500000000000
0
LINE
8
LAYER4
62
4
10
192.000000000000
20
18.500000000000
11
192.000000000000
21
23.500000000000
0
LINE
8
LAYER4
62
4
10
192.000000000000
20
23.500000000000
11
200.000000000000
21
23.500000000000
0
LINE
8
LAYER4
62
4
10
200.000000000000
20
23.500000000000
11
200.000000000000
21
18.500000000000
0
LINE
8
LAYER4
62
4
10
200.000000000000
20
18.500000000000
11
192.000000000000
21
18.500000000000
0
LINE
8
LAYER5
62
5
10
374.000000000000
20
107.000000000000
11
378.000000000000
21
107.000000000000
0
LINE
8
LAYER5
62
5
10
378.000000000000
20
107.000000000000
11
378.000000000000
21
10.000000000000
0
LINE
8
LAYER5
62
5
10
378.000000000000
20
10.000000000000
11
374.000000000000
21
10.000000000000
0
LINE
8
LAYER5
62
5
10
374.000000000000
20
10.000000000000
11
374.000000000000
21
107.000000000000
0
LINE
8
LAYER5
62
5
10
13.500000000000
20
107.000000000000
11
13.500000000000
21
111.000000000000
0
LINE
8
LAYER5
62
5
10
13.500000000000
20
111.000000000000
11
378.500000000000
21
111.000000000000
0
LINE
8
LAYER5
62
5
10
378.500000000000
20
111.000000000000
11
378.500000000000
21
107.000000000000
0
LINE
8
LAYER5
62
5
10
378.500000000000
20
107.000000000000
11
13.500000000000
21
107.000000000000
0
LINE
8
LAYER5
62
5
10
18.000000000000
20
9.999992370605
11
14.000000000000
21
9.999992370605
0
LINE
8
LAYER5
62
5
10
14.000000000000
20
9.999992370605
11
14.000000000000
21
107.000000000000
0
LINE
8
LAYER5
62
5
10
14.000000000000
20
107.000000000000
11
18.000000000000
21
107.000000000000
0
LINE
8
LAYER5
62
5
10
18.000000000000
20
107.000000000000
11
18.000000000000
21
9.999992370605
0
LINE
8
LAYER5
62
5
10
290.500000000000
20
21.500000000000
11
294.500000000000
21
21.500000000000
0
LINE
8
LAYER5
62
5
10
294.500000000000
20
21.500000000000
11
294.500000000000
21
18.000000000000
0
LINE
8
LAYER5
62
5
10
294.500000000000
20
18.000000000000
11
290.500000000000
21
18.000000000000
0
LINE
8
LAYER5
62
5
10
290.500000000000
20
18.000000000000
11
290.500000000000
21
21.500000000000
0
LINE
8
LAYER5
62
5
10
103.500000000000
20
23.500000000000
11
103.500000000000
21
27.500000000000
0
LINE
8
LAYER5
62
5
10
103.500000000000
20
27.500000000000
11
288.500000000000
21
27.500000000000
0
LINE
8
LAYER5
62
5
10
288.500000000000
20
27.500000000000
11
288.500000000000
21
23.500000000000
0
LINE
8
LAYER5
62
5
10
288.500000000000
20
23.500000000000
11
103.500000000000
21
23.500000000000
0
CIRCLE
8
LAYER6
62
6
10
278.637496948242
20
25.500000000000
40
1.149999976158
0
CIRCLE
8
LAYER6
62
6
10
267.625000000000
20
25.500000000000
40
1.149999976158
0
CIRCLE
8
LAYER6
62
6
10
256.612503051758
20
25.500000000000
40
1.149999976158
0
CIRCLE
8
LAYER6
62
6
10
245.600006103516
20
25.500000000000
40
1.149999976158
0
CIRCLE
8
LAYER6
62
6
10
234.587493896484
20
25.500000000000
40
1.149999976158
0
CIRCLE
8
LAYER6
62
6
10
223.574996948242
20
25.500000000000
40
1.149999976158
0
CIRCLE
8
LAYER6
62
6
10
212.562500000000
20
25.500000000000
40
1.149999976158
0
CIRCLE
8
LAYER6
62
6
10
201.550003051758
20
25.500000000000
40
1.149999976158
0
CIRCLE
8
LAYER6
62
6
10
190.449996948242
20
25.500000000000
40
1.149999976158
0
CIRCLE
8
LAYER6
62
6
10
179.437500000000
20
25.500000000000
40
1.149999976158
0
CIRCLE
8
LAYER6
62
6
10
168.425003051758
20
25.500000000000
40
1.149999976158
0
CIRCLE
8
LAYER6
62
6
10
157.412506103516
20
25.500000000000
40
1.149999976158
0
CIRCLE
8
LAYER6
62
6
10
146.399993896484
20
25.500000000000
40
1.149999976158
0
CIRCLE
8
LAYER6
62
6
10
135.387496948242
20
25.500000000000
40
1.149999976158
0
CIRCLE
8
LAYER6
62
6
10
124.375000000000
20
25.500000000000
40
1.149999976158
0
CIRCLE
8
LAYER6
62
6
10
113.362487792969
20
25.500000000000
40
1.149999976158
0
LINE
8
LAYER7
62
7
10
382.000000000000
20
115.000000000000
11
382.000000000000
21
10.000000000000
0
LINE
8
LAYER7
62
7
10
382.000000000000
20
10.000000000000
11
10.000000000000
21
10.000000000000
0
LINE
8
LAYER7
62
7
10
10.000000000000
20
10.000000000000
11
10.000000000000
21
115.000000000000
0
LINE
8
LAYER7
62
7
10
10.000000000000
20
115.000000000000
11
382.000000000000
21
115.000000000000
0
LINE
8
LAYER9
62
8
10
55.569274902344
20
10.999992370605
11
55.569274902344
21
49.430725097656
0
ARC
8
LAYER9
62
8
10
75.569274902344
20
49.430725097656
40
20.000000000000
50
90.000000000000
51
180.000000000000
0
LINE
8
LAYER9
62
8
10
75.569274902344
20
69.430725097656
11
316.430725097656
21
69.430725097656
0
ARC
8
LAYER9
62
8
10
316.430725097656
20
49.430725097656
40
20.000000000000
50
0.000000000000
51
90.000000000000
0
LINE
8
LAYER9
62
8
10
336.430725097656
20
49.430725097656
11
336.430725097656
21
10.000000000000
0
LINE
8
LAYER14
62
8
10
40.794274902344
20
26.503832248637
11
41.131774902344
21
27.103832248637
0
LINE
8
LAYER14
62
8
10
41.131774902344
20
27.103832248637
11
41.131774902344
21
25.103832248637
0
LINE
8
LAYER14
62
8
10
40.906774902344
20
25.103832248637
11
41.356774902344
21
25.103832248637
0
LINE
8
LAYER14
62
8
10
40.598080732965
20
52.550435761000
11
40.766830732965
21
52.850435761000
0
LINE
8
LAYER14
62
8
10
40.766830732965
20
52.850435761000
11
41.554330732965
21
52.850435761000
0
LINE
8
LAYER14
62
8
10
41.554330732965
20
52.850435761000
11
41.723080732965
21
52.550435761000
0
LINE
8
LAYER14
62
8
10
41.723080732965
20
52.550435761000
11
41.723080732965
21
52.250435761000
0
LINE
8
LAYER14
62
8
10
41.723080732965
20
52.250435761000
11
40.598080732965
21
51.150435761000
0
LINE
8
LAYER14
62
8
10
40.598080732965
20
51.150435761000
11
40.598080732965
21
50.850435761000
0
LINE
8
LAYER14
62
8
10
40.598080732965
20
50.850435761000
11
41.723080732965
21
50.850435761000
0
LINE
8
LAYER14
62
8
10
41.723080732965
20
50.850435761000
11
41.723080732965
21
51.150435761000
0
LINE
8
LAYER14
62
8
10
67.614710501832
20
85.314810903177
11
67.727210501832
21
85.514810903177
0
LINE
8
LAYER14
62
8
10
67.727210501832
20
85.514810903177
11
68.627210501832
21
85.514810903177
0
LINE
8
LAYER14
62
8
10
68.627210501832
20
85.514810903177
11
68.739710501832
21
85.314810903177
0
LINE
8
LAYER14
62
8
10
68.739710501832
20
85.314810903177
11
68.739710501832
21
84.914810903177
0
LINE
8
LAYER14
62
8
10
68.739710501832
20
84.914810903177
11
68.627210501832
21
84.714810903177
0
LINE
8
LAYER14
62
8
10
68.627210501832
20
84.714810903177
11
67.952210501832
21
84.714810903177
0
LINE
8
LAYER14
62
8
10
68.627210501832
20
84.714810903177
11
68.739710501832
21
84.514810903177
0
LINE
8
LAYER14
62
8
10
68.739710501832
20
84.514810903177
11
68.739710501832
21
83.714810903177
0
LINE
8
LAYER14
62
8
10
68.739710501832
20
83.714810903177
11
68.627210501832
21
83.514810903177
0
LINE
8
LAYER14
62
8
10
68.627210501832
20
83.514810903177
11
67.727210501832
21
83.514810903177
0
LINE
8
LAYER14
62
8
10
67.727210501832
20
83.514810903177
11
67.614710501832
21
83.714810903177
0
LINE
8
LAYER14
62
8
10
96.527267378088
20
86.430725097656
11
96.527267378088
21
85.630725097656
0
LINE
8
LAYER14
62
8
10
96.527267378088
20
85.630725097656
11
97.652267378088
21
85.630725097656
0
LINE
8
LAYER14
62
8
10
97.652267378088
20
86.430725097656
11
97.652267378088
21
84.430725097656
0
LINE
8
LAYER14
62
8
10
122.652267378088
20
86.430725097656
11
121.527267378088
21
86.430725097656
0
LINE
8
LAYER14
62
8
10
121.527267378088
20
86.430725097656
11
121.527267378088
21
85.630725097656
0
LINE
8
LAYER14
62
8
10
121.527267378088
20
85.630725097656
11
122.483517378088
21
85.630725097656
0
LINE
8
LAYER14
62
8
10
122.483517378088
20
85.630725097656
11
122.652267378088
21
85.330725097656
0
LINE
8
LAYER14
62
8
10
122.652267378088
20
85.330725097656
11
122.652267378088
21
84.730725097656
0
LINE
8
LAYER14
62
8
10
122.652267378088
20
84.730725097656
11
122.483517378088
21
84.430725097656
0
LINE
8
LAYER14
62
8
10
122.483517378088
20
84.430725097656
11
121.696017378088
21
84.430725097656
0
LINE
8
LAYER14
62
8
10
121.696017378088
20
84.430725097656
11
121.527267378088
21
84.730725097656
0
LINE
8
LAYER14
62
8
10
147.652267378088
20
86.430725097656
11
147.483517378088
21
86.430725097656
0
LINE
8
LAYER14
62
8
10
147.483517378088
20
86.430725097656
11
146.527267378088
21
85.930725097656
0
LINE
8
LAYER14
62
8
10
146.527267378088
20
85.930725097656
11
146.527267378088
21
84.730725097656
0
LINE
8
LAYER14
62
8
10
146.527267378088
20
84.730725097656
11
146.696017378088
21
84.430725097656
0
LINE
8
LAYER14
62
8
10
146.696017378088
20
84.430725097656
11
147.483517378088
21
84.430725097656
0
LINE
8
LAYER14
62
8
10
147.483517378088
20
84.430725097656
11
147.652267378088
21
84.730725097656
0
LINE
8
LAYER14
62
8
10
147.652267378088
20
84.730725097656
11
147.652267378088
21
85.330725097656
0
LINE
8
LAYER14
62
8
10
147.652267378088
20
85.330725097656
11
147.483517378088
21
85.630725097656
0
LINE
8
LAYER14
62
8
10
147.483517378088
20
85.630725097656
11
146.527267378088
21
85.630725097656
0
LINE
8
LAYER14
62
8
10
171.527267378088
20
86.130725097656
11
171.527267378088
21
86.430725097656
0
LINE
8
LAYER14
62
8
10
171.527267378088
20
86.430725097656
11
172.652267378088
21
86.430725097656
0
LINE
8
LAYER14
62
8
10
172.652267378088
20
86.430725097656
11
172.652267378088
21
85.730725097656
0
LINE
8
LAYER14
62
8
10
172.652267378088
20
85.730725097656
11
172.089767378088
21
85.230725097656
0
LINE
8
LAYER14
62
8
10
172.089767378088
20
85.230725097656
11
172.089767378088
21
84.430725097656
0
LINE
8
LAYER14
62
8
10
196.696017378088
20
84.430725097656
11
196.527267378088
21
84.730725097656
0
LINE
8
LAYER14
62
8
10
196.527267378088
20
84.730725097656
11
196.527267378088
21
85.130725097656
0
LINE
8
LAYER14
62
8
10
196.527267378088
20
85.130725097656
11
196.696017378088
21
85.430725097656
0
LINE
8
LAYER14
62
8
10
196.696017378088
20
85.430725097656
11
197.483517378088
21
85.430725097656
0
LINE
8
LAYER14
62
8
10
197.483517378088
20
85.430725097656
11
197.652267378088
21
85.130725097656
0
LINE
8
LAYER14
62
8
10
197.652267378088
20
85.130725097656
11
197.652267378088
21
84.730725097656
0
LINE
8
LAYER14
62
8
10
197.652267378088
20
84.730725097656
11
197.483517378088
21
84.430725097656
0
LINE
8
LAYER14
62
8
10
197.483517378088
20
84.430725097656
11
196.696017378088
21
84.430725097656
0
LINE
8
LAYER14
62
8
10
196.696017378088
20
85.430725097656
11
196.527267378088
21
85.730725097656
0
LINE
8
LAYER14
62
8
10
196.527267378088
20
85.730725097656
11
196.527267378088
21
86.130725097656
0
LINE
8
LAYER14
62
8
10
196.527267378088
20
86.130725097656
11
196.696017378088
21
86.430725097656
0
LINE
8
LAYER14
62
8
10
196.696017378088
20
86.430725097656
11
197.483517378088
21
86.430725097656
0
LINE
8
LAYER14
62
8
10
197.483517378088
20
86.430725097656
11
197.652267378088
21
86.130725097656
0
LINE
8
LAYER14
62
8
10
197.652267378088
20
86.130725097656
11
197.652267378088
21
85.730725097656
0
LINE
8
LAYER14
62
8
10
197.652267378088
20
85.730725097656
11
197.483517378088
21
85.430725097656
0
LINE
8
LAYER14
62
8
10
221.527267378088
20
84.730725097656
11
221.696017378088
21
84.430725097656
0
LINE
8
LAYER14
62
8
10
221.696017378088
20
84.430725097656
11
222.483517378088
21
84.430725097656
0
LINE
8
LAYER14
62
8
10
222.483517378088
20
84.430725097656
11
222.652267378088
21
84.730725097656
0
LINE
8
LAYER14
62
8
10
222.652267378088
20
84.730725097656
11
222.652267378088
21
86.130725097656
0
LINE
8
LAYER14
62
8
10
222.652267378088
20
86.130725097656
11
222.483517378088
21
86.430725097656
0
LINE
8
LAYER14
62
8
10
222.483517378088
20
86.430725097656
11
221.696017378088
21
86.430725097656
0
LINE
8
LAYER14
62
8
10
221.696017378088
20
86.430725097656
11
221.527267378088
21
86.130725097656
0
LINE
8
LAYER14
62
8
10
221.527267378088
20
86.130725097656
11
221.527267378088
21
85.730725097656
0
LINE
8
LAYER14
62
8
10
221.527267378088
20
85.730725097656
11
221.696017378088
21
85.430725097656
0
LINE
8
LAYER14
62
8
10
221.696017378088
20
85.430725097656
11
222.652267378088
21
85.430725097656
0
LINE
8
LAYER14
62
8
10
246.752267378088
20
85.830725097656
11
247.089767378088
21
86.430725097656
0
LINE
8
LAYER14
62
8
10
247.089767378088
20
86.430725097656
11
247.089767378088
21
84.430725097656
0
LINE
8
LAYER14
62
8
10
246.864767378088
20
84.430725097656
11
247.314767378088
21
84.430725097656
0
LINE
8
LAYER14
62
8
10
248.308517378088
20
84.430725097656
11
248.871017378088
21
84.430725097656
0
LINE
8
LAYER14
62
8
10
248.871017378088
20
84.430725097656
11
249.152267378088
21
84.930725097656
0
LINE
8
LAYER14
62
8
10
249.152267378088
20
84.930725097656
11
249.152267378088
21
85.930725097656
0
LINE
8
LAYER14
62
8
10
249.152267378088
20
85.930725097656
11
248.871017378088
21
86.430725097656
0
LINE
8
LAYER14
62
8
10
248.871017378088
20
86.430725097656
11
248.308517378088
21
86.430725097656
0
LINE
8
LAYER14
62
8
10
248.308517378088
20
86.430725097656
11
248.027267378088
21
85.930725097656
0
LINE
8
LAYER14
62
8
10
248.027267378088
20
85.930725097656
11
248.027267378088
21
84.930725097656
0
LINE
8
LAYER14
62
8
10
248.027267378088
20
84.930725097656
11
248.308517378088
21
84.430725097656
0
LINE
8
LAYER14
62
8
10
271.752267378088
20
85.830725097656
11
272.089767378088
21
86.430725097656
0
LINE
8
LAYER14
62
8
10
272.089767378088
20
86.430725097656
11
272.089767378088
21
84.430725097656
0
LINE
8
LAYER14
62
8
10
271.864767378088
20
84.430725097656
11
272.314767378088
21
84.430725097656
0
LINE
8
LAYER14
62
8
10
273.252267378088
20
85.830725097656
11
273.589767378088
21
86.430725097656
0
LINE
8
LAYER14
62
8
10
273.589767378088
20
86.430725097656
11
273.589767378088
21
84.430725097656
0
LINE
8
LAYER14
62
8
10
273.364767378088
20
84.430725097656
11
273.814767378088
21
84.430725097656
0
LINE
8
LAYER14
62
8
10
296.897978031134
20
85.830725097656
11
297.235478031134
21
86.430725097656
0
LINE
8
LAYER14
62
8
10
297.235478031134
20
86.430725097656
11
297.235478031134
21
84.430725097656
0
LINE
8
LAYER14
62
8
10
297.010478031134
20
84.430725097656
11
297.460478031134
21
84.430725097656
0
LINE
8
LAYER14
62
8
10
298.172978031134
20
86.130725097656
11
298.341728031134
21
86.430725097656
0
LINE
8
LAYER14
62
8
10
298.341728031134
20
86.430725097656
11
299.129228031134
21
86.430725097656
0
LINE
8
LAYER14
62
8
10
299.129228031134
20
86.430725097656
11
299.297978031134
21
86.130725097656
0
LINE
8
LAYER14
62
8
10
299.297978031134
20
86.130725097656
11
299.297978031134
21
85.830725097656
0
LINE
8
LAYER14
62
8
10
299.297978031134
20
85.830725097656
11
298.172978031134
21
84.730725097656
0
LINE
8
LAYER14
62
8
10
298.172978031134
20
84.730725097656
11
298.172978031134
21
84.430725097656
0
LINE
8
LAYER14
62
8
10
298.172978031134
20
84.430725097656
11
299.297978031134
21
84.430725097656
0
LINE
8
LAYER14
62
8
10
299.297978031134
20
84.430725097656
11
299.297978031134
21
84.730725097656
0
LINE
8
LAYER14
62
8
10
326.388370603714
20
84.450296948788
11
326.725870603714
21
85.050296948788
0
LINE
8
LAYER14
62
8
10
326.725870603714
20
85.050296948788
11
326.725870603714
21
83.050296948788
0
LINE
8
LAYER14
62
8
10
326.500870603714
20
83.050296948788
11
326.950870603714
21
83.050296948788
0
LINE
8
LAYER14
62
8
10
327.663370603714
20
84.850296948788
11
327.775870603714
21
85.050296948788
0
LINE
8
LAYER14
62
8
10
327.775870603714
20
85.050296948788
11
328.675870603714
21
85.050296948788
0
LINE
8
LAYER14
62
8
10
328.675870603714
20
85.050296948788
11
328.788370603714
21
84.850296948788
0
LINE
8
LAYER14
62
8
10
328.788370603714
20
84.850296948788
11
328.788370603714
21
84.450296948788
0
LINE
8
LAYER14
62
8
10
328.788370603714
20
84.450296948788
11
328.675870603714
21
84.250296948788
0
LINE
8
LAYER14
62
8
10
328.675870603714
20
84.250296948788
11
328.000870603714
21
84.250296948788
0
LINE
8
LAYER14
62
8
10
328.675870603714
20
84.250296948788
11
328.788370603714
21
84.050296948788
0
LINE
8
LAYER14
62
8
10
328.788370603714
20
84.050296948788
11
328.788370603714
21
83.250296948788
0
LINE
8
LAYER14
62
8
10
328.788370603714
20
83.250296948788
11
328.675870603714
21
83.050296948788
0
LINE
8
LAYER14
62
8
10
328.675870603714
20
83.050296948788
11
327.775870603714
21
83.050296948788
0
LINE
8
LAYER14
62
8
10
327.775870603714
20
83.050296948788
11
327.663370603714
21
83.250296948788
0
LINE
8
LAYER14
62
8
10
351.655725097656
20
50.661793767156
11
351.993225097656
21
51.261793767156
0
LINE
8
LAYER14
62
8
10
351.993225097656
20
51.261793767156
11
351.993225097656
21
49.261793767156
0
LINE
8
LAYER14
62
8
10
351.768225097656
20
49.261793767156
11
352.218225097656
21
49.261793767156
0
LINE
8
LAYER14
62
8
10
352.930725097656
20
51.261793767156
11
352.930725097656
21
50.461793767156
0
LINE
8
LAYER14
62
8
10
352.930725097656
20
50.461793767156
11
354.055725097656
21
50.461793767156
0
LINE
8
LAYER14
62
8
10
354.055725097656
20
51.261793767156
11
354.055725097656
21
49.261793767156
0
LINE
8
LAYER14
62
8
10
351.655725097656
20
25.400000000000
11
351.993225097656
21
26.000000000000
0
LINE
8
LAYER14
62
8
10
351.993225097656
20
26.000000000000
11
351.993225097656
21
24.000000000000
0
LINE
8
LAYER14
62
8
10
351.768225097656
20
24.000000000000
11
352.218225097656
21
24.000000000000
0
LINE
8
LAYER14
62
8
10
354.055725097656
20
26.000000000000
11
352.930725097656
21
26.000000000000
0
LINE
8
LAYER14
62
8
10
352.930725097656
20
26.000000000000
11
352.930725097656
21
25.200000000000
0
LINE
8
LAYER14
62
8
10
352.930725097656
20
25.200000000000
11
353.886975097656
21
25.200000000000
0
LINE
8
LAYER14
62
8
10
353.886975097656
20
25.200000000000
11
354.055725097656
21
24.900000000000
0
LINE
8
LAYER14
62
8
10
354.055725097656
20
24.900000000000
11
354.055725097656
21
24.300000000000
0
LINE
8
LAYER14
62
8
10
354.055725097656
20
24.300000000000
11
353.886975097656
21
24.000000000000
0
LINE
8
LAYER14
62
8
10
353.886975097656
20
24.000000000000
11
353.099475097656
21
24.000000000000
0
LINE
8
LAYER14
62
8
10
353.099475097656
20
24.000000000000
11
352.930725097656
21
24.300000000000
0
LINE
8
LAYER15
62
8
10
10.000000000000
20
0.000000000000
11
10.000000000000
21
115.000000000000
0
LINE
8
LAYER15
62
8
10
10.000000000000
20
115.000000000000
11
0.000000000000
21
125.000000000000
0
LINE
8
LAYER15
62
8
10
0.000000000000
20
125.000000000000
11
0.000000000000
21
0.000000000000
0
LINE
8
LAYER15
62
8
10
0.000000000000
20
0.000000000000
11
10.000000000000
21
0.000000000000
0
LINE
8
LAYER15
62
8
10
10.000000000000
20
115.000000000000
11
382.000000000000
21
115.000000000000
0
LINE
8
LAYER15
62
8
10
382.000000000000
20
115.000000000000
11
392.000000000000
21
125.000000000000
0
LINE
8
LAYER15
62
8
10
392.000000000000
20
125.000000000000
11
0.000000000000
21
125.000000000000
0
LINE
8
LAYER15
62
8
10
0.000000000000
20
125.000000000000
11
10.000000000000
21
115.000000000000
0
LINE
8
LAYER15
62
8
10
382.000000000000
20
115.000000000000
11
382.000000000000
21
10.000000000000
0
LINE
8
LAYER15
62
8
10
382.000000000000
20
10.000000000000
11
392.000000000000
21
10.000000000000
0
LINE
8
LAYER15
62
8
10
392.000000000000
20
10.000000000000
11
392.000000000000
21
125.000000000000
0
LINE
8
LAYER15
62
8
10
392.000000000000
20
125.000000000000
11
382.000000000000
21
115.000000000000
0
ENDSEC
0
EOF
