0
SECTION
2
HEADER
0
ENDSEC
0
SECTION
2
TABLES
0
TABLE
2
LTYPE
70
1
0
LTYPE
2
CONTINUOUS
70
64
3
Solid line
72
65
73
0
40
0
0
ENDTAB
0
TABLE
2
LAYER
70
20
0
LAYER
2
COMPASS
70
0
62
1
6
CONTINUOUS
0
LAYER
2
LAYER1
70
0
62
1
6
CONTINUOUS
0
LAYER
2
LAYER2
70
0
62
1
6
CONTINUOUS
0
LAYER
2
LAYER3
70
0
62
1
6
CONTINUOUS
0
LAYER
2
LAYER4
70
0
62
1
6
CONTINUOUS
0
LAYER
2
LAYER5
70
0
62
1
6
CONTINUOUS
0
LAYER
2
LAYER6
70
0
62
1
6
CONTINUOUS
0
LAYER
2
LAYER7
70
0
62
1
6
CONTINUOUS
0
LAYER
2
LAYER8
70
0
62
1
6
CONTINUOUS
0
LAYER
2
LAYER9
70
0
62
1
6
CONTINUOUS
0
LAYER
2
LAYER10
70
0
62
1
6
CONTINUOUS
0
LAYER
2
LAYER11
70
0
62
1
6
CONTINUOUS
0
LAYER
2
LAYER12
70
0
62
1
6
CONTINUOUS
0
LAYER
2
LAYER13
70
0
62
1
6
CONTINUOUS
0
LAYER
2
LAYER14
70
0
62
1
6
CONTINUOUS
0
LAYER
2
LAYER15
70
0
62
1
6
CONTINUOUS
0
LAYER
2
LAYER16
70
0
62
1
6
CONTINUOUS
0
LAYER
2
LAYER17
70
0
62
1
6
CONTINUOUS
0
LAYER
2
LAYER18
70
0
62
1
6
CONTINUOUS
0
LAYER
2
LAYER19
70
0
62
1
6
CONTINUOUS
0
ENDTAB
0
ENDSEC
0
SECTION
2
BLOCKS
0
ENDSEC
0
SECTION
2
ENTITIES
0
LINE
8
LAYER1
62
1
10
97.500000000000
20
10.999992642593
11
14.500000000000
21
10.999992642593
0
LINE
8
LAYER1
62
1
10
97.500000000000
20
20.336121322640
11
97.500000000000
21
10.999992642593
0
LINE
8
LAYER1
62
1
10
14.500000000000
20
10.999992642593
11
14.500000000000
21
57.859070400544
0
LINE
8
LAYER1
62
1
10
14.500000000000
20
57.859070400544
11
97.500000000000
21
20.336121322640
0
LINE
8
LAYER1
62
1
10
97.500000000000
20
17.043794297545
11
14.500000000000
21
54.566743375449
0
LINE
8
LAYER1
62
1
10
95.500000000000
20
28.641759466160
11
95.500000000000
21
21.500000000000
0
LINE
8
LAYER1
62
1
10
95.500000000000
20
21.500000000000
11
97.500000000000
21
21.500000000000
0
LINE
8
LAYER1
62
1
10
97.500000000000
20
21.500000000000
11
97.500000000000
21
17.043794297545
0
LINE
8
LAYER1
62
1
10
14.500000000000
20
54.566743375449
11
14.500000000000
21
109.487972803986
0
LINE
8
LAYER1
62
1
10
14.500000000000
20
109.487972803986
11
95.500000000000
21
28.641759466160
0
LINE
8
LAYER1
62
1
10
95.500000000000
20
24.403144405984
11
14.500000000000
21
105.249357743810
0
LINE
8
LAYER1
62
1
10
102.501559887300
20
29.500000000000
11
95.500000000000
21
29.500000000000
0
LINE
8
LAYER1
62
1
10
95.500000000000
20
29.500000000000
11
95.500000000000
21
24.403144405984
0
LINE
8
LAYER1
62
1
10
14.500000000000
20
105.249357743810
11
14.500000000000
21
110.500000000000
0
LINE
8
LAYER1
62
1
10
14.500000000000
20
110.500000000000
11
68.581050670816
21
110.500000000000
0
LINE
8
LAYER1
62
1
10
68.581050670816
20
110.500000000000
11
102.501559887300
21
29.500000000000
0
LINE
8
LAYER1
62
1
10
99.249125757050
20
29.500000000000
11
65.328616540566
21
110.500000000000
0
LINE
8
LAYER1
62
1
10
110.527267378088
20
27.500000000000
11
103.500000000000
21
27.500000000000
0
LINE
8
LAYER1
62
1
10
103.500000000000
20
27.500000000000
11
103.500000000000
21
29.500000000000
0
LINE
8
LAYER1
62
1
10
103.500000000000
20
29.500000000000
11
99.249125757050
21
29.500000000000
0
LINE
8
LAYER1
62
1
10
65.328616540566
20
110.500000000000
11
110.527267378088
21
110.500000000000
0
LINE
8
LAYER1
62
1
10
110.527267378088
20
110.500000000000
11
110.527267378088
21
27.500000000000
0
LINE
8
LAYER1
62
1
10
107.527267378088
20
27.500000000000
11
107.527267378088
21
110.500000000000
0
LINE
8
LAYER1
62
1
10
135.527267378088
20
27.500000000000
11
107.527267378088
21
27.500000000000
0
LINE
8
LAYER1
62
1
10
107.527267378088
20
110.500000000000
11
135.527267378088
21
110.500000000000
0
LINE
8
LAYER1
62
1
10
135.527267378088
20
110.500000000000
11
135.527267378088
21
27.500000000000
0
LINE
8
LAYER1
62
1
10
132.527267378088
20
27.500000000000
11
132.527267378088
21
110.500000000000
0
LINE
8
LAYER1
62
1
10
160.527267378088
20
27.500000000000
11
132.527267378088
21
27.500000000000
0
LINE
8
LAYER1
62
1
10
132.527267378088
20
110.500000000000
11
160.527267378088
21
110.500000000000
0
LINE
8
LAYER1
62
1
10
160.527267378088
20
110.500000000000
11
160.527267378088
21
27.500000000000
0
LINE
8
LAYER1
62
1
10
157.527267378088
20
27.500000000000
11
157.527267378088
21
110.500000000000
0
LINE
8
LAYER1
62
1
10
185.527267378088
20
27.500000000000
11
157.527267378088
21
27.500000000000
0
LINE
8
LAYER1
62
1
10
157.527267378088
20
110.500000000000
11
185.527267378088
21
110.500000000000
0
LINE
8
LAYER1
62
1
10
185.527267378088
20
110.500000000000
11
185.527267378088
21
27.500000000000
0
LINE
8
LAYER1
62
1
10
182.527267378088
20
27.500000000000
11
182.527267378088
21
110.500000000000
0
LINE
8
LAYER1
62
1
10
210.527267378088
20
27.500000000000
11
182.527267378088
21
27.500000000000
0
LINE
8
LAYER1
62
1
10
182.527267378088
20
110.500000000000
11
210.527267378088
21
110.500000000000
0
LINE
8
LAYER1
62
1
10
210.527267378088
20
110.500000000000
11
210.527267378088
21
27.500000000000
0
LINE
8
LAYER1
62
1
10
207.527267378088
20
27.500000000000
11
207.527267378088
21
110.500000000000
0
LINE
8
LAYER1
62
1
10
235.527267378088
20
27.500000000000
11
207.527267378088
21
27.500000000000
0
LINE
8
LAYER1
62
1
10
207.527267378088
20
110.500000000000
11
235.527267378088
21
110.500000000000
0
LINE
8
LAYER1
62
1
10
235.527267378088
20
110.500000000000
11
235.527267378088
21
27.500000000000
0
LINE
8
LAYER1
62
1
10
232.527267378088
20
27.500000000000
11
232.527267378088
21
110.500000000000
0
LINE
8
LAYER1
62
1
10
260.527267378088
20
27.500000000000
11
232.527267378088
21
27.500000000000
0
LINE
8
LAYER1
62
1
10
232.527267378088
20
110.500000000000
11
260.527267378088
21
110.500000000000
0
LINE
8
LAYER1
62
1
10
260.527267378088
20
110.500000000000
11
260.527267378088
21
27.500000000000
0
LINE
8
LAYER1
62
1
10
257.527267378088
20
27.500000000000
11
257.527267378088
21
110.500000000000
0
LINE
8
LAYER1
62
1
10
285.527267378088
20
27.500000000000
11
257.527267378088
21
27.500000000000
0
LINE
8
LAYER1
62
1
10
257.527267378088
20
110.500000000000
11
285.527267378088
21
110.500000000000
0
LINE
8
LAYER1
62
1
10
285.527267378088
20
110.500000000000
11
285.527267378088
21
27.500000000000
0
LINE
8
LAYER1
62
1
10
282.527267378088
20
27.500000000000
11
282.527267378088
21
110.500000000000
0
LINE
8
LAYER1
62
1
10
292.795942091926
20
29.500000000000
11
288.500000000000
21
29.500000000000
0
LINE
8
LAYER1
62
1
10
288.500000000000
20
29.500000000000
11
288.500000000000
21
27.500000000000
0
LINE
8
LAYER1
62
1
10
288.500000000000
20
27.500000000000
11
282.527267378088
21
27.500000000000
0
LINE
8
LAYER1
62
1
10
282.527267378088
20
110.500000000000
11
329.355320124816
21
110.500000000000
0
LINE
8
LAYER1
62
1
10
329.355320124816
20
110.500000000000
11
292.795942091926
21
29.500000000000
0
LINE
8
LAYER1
62
1
10
289.504520785833
20
29.500000000000
11
326.063898818724
21
110.500000000000
0
LINE
8
LAYER1
62
1
10
296.500000000000
20
24.526699034682
11
296.500000000000
21
29.500000000000
0
LINE
8
LAYER1
62
1
10
296.500000000000
20
29.500000000000
11
289.504520785833
21
29.500000000000
0
LINE
8
LAYER1
62
1
10
326.063898818724
20
110.500000000000
11
377.500000000000
21
110.500000000000
0
LINE
8
LAYER1
62
1
10
377.500000000000
20
110.500000000000
11
377.500000000000
21
102.686562026060
0
LINE
8
LAYER1
62
1
10
377.500000000000
20
102.686562026060
11
296.500000000000
21
24.526699034682
0
LINE
8
LAYER1
62
1
10
296.500000000000
20
28.695622568790
11
377.500000000000
21
106.855485560167
0
LINE
8
LAYER1
62
1
10
294.500000000000
20
20.219150317843
11
294.500000000000
21
21.500000000000
0
LINE
8
LAYER1
62
1
10
294.500000000000
20
21.500000000000
11
296.500000000000
21
21.500000000000
0
LINE
8
LAYER1
62
1
10
296.500000000000
20
21.500000000000
11
296.500000000000
21
28.695622568790
0
LINE
8
LAYER1
62
1
10
377.500000000000
20
106.855485560167
11
377.500000000000
21
49.127308177795
0
LINE
8
LAYER1
62
1
10
377.500000000000
20
49.127308177795
11
294.500000000000
21
20.219150317843
0
LINE
8
LAYER1
62
1
10
296.500000000000
20
24.092485486923
11
377.500000000000
21
52.304061229768
0
LINE
8
LAYER1
62
1
10
296.500000000000
20
10.000000000000
11
296.500000000000
21
18.000000000000
0
LINE
8
LAYER1
62
1
10
296.500000000000
20
18.000000000000
11
294.500000000000
21
18.000000000000
0
LINE
8
LAYER1
62
1
10
294.500000000000
20
18.000000000000
11
294.500000000000
21
21.500000000000
0
LINE
8
LAYER1
62
1
10
294.500000000000
20
21.500000000000
11
296.500000000000
21
21.500000000000
0
LINE
8
LAYER1
62
1
10
296.500000000000
20
21.500000000000
11
296.500000000000
21
24.092485486923
0
LINE
8
LAYER1
62
1
10
377.500000000000
20
52.304061229768
11
377.500000000000
21
10.000000000000
0
LINE
8
LAYER1
62
1
10
377.500000000000
20
10.000000000000
11
375.000000000000
21
10.000000000000
0
LINE
8
LAYER1
62
1
10
372.500000000000
20
10.000000000000
11
370.000000000000
21
10.000000000000
0
LINE
8
LAYER1
62
1
10
367.500000000000
20
10.000000000000
11
365.000000000000
21
10.000000000000
0
LINE
8
LAYER1
62
1
10
362.500000000000
20
10.000000000000
11
360.000000000000
21
10.000000000000
0
LINE
8
LAYER1
62
1
10
357.500000000000
20
10.000000000000
11
355.000000000000
21
10.000000000000
0
LINE
8
LAYER1
62
1
10
352.500000000000
20
10.000000000000
11
350.000000000000
21
10.000000000000
0
LINE
8
LAYER1
62
1
10
347.500000000000
20
10.000000000000
11
345.000000000000
21
10.000000000000
0
LINE
8
LAYER1
62
1
10
342.500000000000
20
10.000000000000
11
340.000000000000
21
10.000000000000
0
LINE
8
LAYER1
62
1
10
337.500000000000
20
10.000000000000
11
335.000000000000
21
10.000000000000
0
LINE
8
LAYER1
62
1
10
332.500000000000
20
10.000000000000
11
330.000000000000
21
10.000000000000
0
LINE
8
LAYER1
62
1
10
327.500000000000
20
10.000000000000
11
325.000000000000
21
10.000000000000
0
LINE
8
LAYER1
62
1
10
322.500000000000
20
10.000000000000
11
320.000000000000
21
10.000000000000
0
LINE
8
LAYER1
62
1
10
317.500000000000
20
10.000000000000
11
315.000000000000
21
10.000000000000
0
LINE
8
LAYER1
62
1
10
312.500000000000
20
10.000000000000
11
310.000000000000
21
10.000000000000
0
LINE
8
LAYER1
62
1
10
307.500000000000
20
10.000000000000
11
305.000000000000
21
10.000000000000
0
LINE
8
LAYER1
62
1
10
302.500000000000
20
10.000000000000
11
300.000000000000
21
10.000000000000
0
LINE
8
LAYER1
62
1
10
297.500000000000
20
10.000000000000
11
296.500000000000
21
10.000000000000
0
LINE
8
LAYER2
62
2
10
93.500000000000
20
13.999992642593
11
91.000000000000
21
13.999992642593
0
LINE
8
LAYER2
62
2
10
88.500000000000
20
13.999992642593
11
86.000000000000
21
13.999992642593
0
LINE
8
LAYER2
62
2
10
83.500000000000
20
13.999992642593
11
81.000000000000
21
13.999992642593
0
LINE
8
LAYER2
62
2
10
78.500000000000
20
13.999992642593
11
76.000000000000
21
13.999992642593
0
LINE
8
LAYER2
62
2
10
73.500000000000
20
13.999992642593
11
71.000000000000
21
13.999992642593
0
LINE
8
LAYER2
62
2
10
68.500000000000
20
13.999992642593
11
66.000000000000
21
13.999992642593
0
LINE
8
LAYER2
62
2
10
63.500000000000
20
13.999992642593
11
61.000000000000
21
13.999992642593
0
LINE
8
LAYER2
62
2
10
58.500000000000
20
13.999992642593
11
56.000000000000
21
13.999992642593
0
LINE
8
LAYER2
62
2
10
53.500000000000
20
13.999992642593
11
51.000000000000
21
13.999992642593
0
LINE
8
LAYER2
62
2
10
48.500000000000
20
13.999992642593
11
46.000000000000
21
13.999992642593
0
LINE
8
LAYER2
62
2
10
43.500000000000
20
13.999992642593
11
41.000000000000
21
13.999992642593
0
LINE
8
LAYER2
62
2
10
38.500000000000
20
13.999992642593
11
36.000000000000
21
13.999992642593
0
LINE
8
LAYER2
62
2
10
33.500000000000
20
13.999992642593
11
31.000000000000
21
13.999992642593
0
LINE
8
LAYER2
62
2
10
28.500000000000
20
13.999992642593
11
26.000000000000
21
13.999992642593
0
LINE
8
LAYER2
62
2
10
23.500000000000
20
13.999992642593
11
21.000000000000
21
13.999992642593
0
LINE
8
LAYER2
62
2
10
18.500000000000
20
15.999992642593
11
21.000000000000
21
15.999992642593
0
LINE
8
LAYER2
62
2
10
23.500000000000
20
15.999992642593
11
26.000000000000
21
15.999992642593
0
LINE
8
LAYER2
62
2
10
28.500000000000
20
15.999992642593
11
31.000000000000
21
15.999992642593
0
LINE
8
LAYER2
62
2
10
33.500000000000
20
15.999992642593
11
36.000000000000
21
15.999992642593
0
LINE
8
LAYER2
62
2
10
38.500000000000
20
15.999992642593
11
41.000000000000
21
15.999992642593
0
LINE
8
LAYER2
62
2
10
43.500000000000
20
15.999992642593
11
46.000000000000
21
15.999992642593
0
LINE
8
LAYER2
62
2
10
48.500000000000
20
15.999992642593
11
51.000000000000
21
15.999992642593
0
LINE
8
LAYER2
62
2
10
53.500000000000
20
15.999992642593
11
56.000000000000
21
15.999992642593
0
LINE
8
LAYER2
62
2
10
58.500000000000
20
15.999992642593
11
61.000000000000
21
15.999992642593
0
LINE
8
LAYER2
62
2
10
63.500000000000
20
15.999992642593
11
66.000000000000
21
15.999992642593
0
LINE
8
LAYER2
62
2
10
68.500000000000
20
15.999992642593
11
71.000000000000
21
15.999992642593
0
LINE
8
LAYER2
62
2
10
73.500000000000
20
15.999992642593
11
76.000000000000
21
15.999992642593
0
LINE
8
LAYER2
62
2
10
78.500000000000
20
15.999992642593
11
81.000000000000
21
15.999992642593
0
LINE
8
LAYER2
62
2
10
83.500000000000
20
15.999992642593
11
86.000000000000
21
15.999992642593
0
LINE
8
LAYER2
62
2
10
88.500000000000
20
15.999992642593
11
91.000000000000
21
15.999992642593
0
LINE
8
LAYER2
62
2
10
93.500000000000
20
15.999992642593
11
93.500000000000
21
13.999992642593
0
LINE
8
LAYER2
62
2
10
18.500000000000
20
13.999992642593
11
18.500000000000
21
15.999992642593
0
LINE
8
LAYER2
62
2
10
92.198384101985
20
22.732895580132
11
89.920360095611
21
23.762753155908
0
LINE
8
LAYER2
62
2
10
87.642336089237
20
24.792610731684
11
85.364312082863
21
25.822468307460
0
LINE
8
LAYER2
62
2
10
83.086288076489
20
26.852325883236
11
80.808264070115
21
27.882183459012
0
LINE
8
LAYER2
62
2
10
78.530240063741
20
28.912041034788
11
76.252216057367
21
29.941898610565
0
LINE
8
LAYER2
62
2
10
73.974192050992
20
30.971756186341
11
71.696168044618
21
32.001613762117
0
LINE
8
LAYER2
62
2
10
69.418144038244
20
33.031471337893
11
67.140120031870
21
34.061328913669
0
LINE
8
LAYER2
62
2
10
64.862096025496
20
35.091186489445
11
62.584072019122
21
36.121044065221
0
LINE
8
LAYER2
62
2
10
60.306048012748
20
37.150901640997
11
58.028024006374
21
38.180759216773
0
LINE
8
LAYER2
62
2
10
55.750000000000
20
39.210616792550
11
53.471975993626
21
40.240474368326
0
LINE
8
LAYER2
62
2
10
51.193951987252
20
41.270331944102
11
48.915927980878
21
42.300189519878
0
LINE
8
LAYER2
62
2
10
46.637903974504
20
43.330047095654
11
44.359879968130
21
44.359904671430
0
LINE
8
LAYER2
62
2
10
42.081855961756
20
45.389762247206
11
39.803831955382
21
46.419619822982
0
LINE
8
LAYER2
62
2
10
37.525807949007
20
47.449477398759
11
35.247783942633
21
48.479334974535
0
LINE
8
LAYER2
62
2
10
32.969759936259
20
49.509192550311
11
30.691735929885
21
50.539050126087
0
LINE
8
LAYER2
62
2
10
28.413711923511
20
51.568907701863
11
26.135687917137
21
52.598765277639
0
LINE
8
LAYER2
62
2
10
23.857663910763
20
53.628622853415
11
21.579639904389
21
54.658480429191
0
LINE
8
LAYER2
62
2
10
20.125501958636
20
57.510757210067
11
22.403525965010
21
56.480899634291
0
LINE
8
LAYER2
62
2
10
24.681549971384
20
55.451042058514
11
26.959573977758
21
54.421184482738
0
LINE
8
LAYER2
62
2
10
29.237597984132
20
53.391326906962
11
31.515621990506
21
52.361469331186
0
LINE
8
LAYER2
62
2
10
33.793645996880
20
51.331611755410
11
36.071670003254
21
50.301754179634
0
LINE
8
LAYER2
62
2
10
38.349694009628
20
49.271896603858
11
40.627718016003
21
48.242039028082
0
LINE
8
LAYER2
62
2
10
42.905742022377
20
47.212181452306
11
45.183766028751
21
46.182323876529
0
LINE
8
LAYER2
62
2
10
47.461790035125
20
45.152466300753
11
49.739814041499
21
44.122608724977
0
LINE
8
LAYER2
62
2
10
52.017838047873
20
43.092751149201
11
54.295862054247
21
42.062893573425
0
LINE
8
LAYER2
62
2
10
56.573886060621
20
41.033035997649
11
58.851910066995
21
40.003178421873
0
LINE
8
LAYER2
62
2
10
61.129934073369
20
38.973320846097
11
63.407958079743
21
37.943463270321
0
LINE
8
LAYER2
62
2
10
65.685982086117
20
36.913605694544
11
67.964006092491
21
35.883748118768
0
LINE
8
LAYER2
62
2
10
70.242030098865
20
34.853890542992
11
72.520054105239
21
33.824032967216
0
LINE
8
LAYER2
62
2
10
74.798078111614
20
32.794175391440
11
77.076102117988
21
31.764317815664
0
LINE
8
LAYER2
62
2
10
79.354126124362
20
30.734460239888
11
81.632150130736
21
29.704602664112
0
LINE
8
LAYER2
62
2
10
83.910174137110
20
28.674745088335
11
86.188198143484
21
27.644887512559
0
LINE
8
LAYER2
62
2
10
88.466222149858
20
26.615029936783
11
90.744246156232
21
25.585172361007
0
LINE
8
LAYER2
62
2
10
93.022270162606
20
24.555314785231
11
92.198384101985
21
22.732895580132
0
LINE
8
LAYER2
62
2
10
19.301615898015
20
55.688338004967
11
20.125501958636
21
57.510757210067
0
LINE
8
LAYER2
62
2
10
93.158363702288
20
30.978949931400
11
91.388917811703
21
32.745036350659
0
LINE
8
LAYER2
62
2
10
89.619471921118
20
34.511122769918
11
87.850026030532
21
36.277209189177
0
LINE
8
LAYER2
62
2
10
86.080580139947
20
38.043295608436
11
84.311134249362
21
39.809382027695
0
LINE
8
LAYER2
62
2
10
82.541688358777
20
41.575468446954
11
80.772242468192
21
43.341554866213
0
LINE
8
LAYER2
62
2
10
79.002796577607
20
45.107641285472
11
77.233350687022
21
46.873727704731
0
LINE
8
LAYER2
62
2
10
75.463904796437
20
48.639814123991
11
73.694458905851
21
50.405900543250
0
LINE
8
LAYER2
62
2
10
71.925013015266
20
52.171986962509
11
70.155567124681
21
53.938073381768
0
LINE
8
LAYER2
62
2
10
68.386121234096
20
55.704159801027
11
66.616675343511
21
57.470246220286
0
LINE
8
LAYER2
62
2
10
64.847229452926
20
59.236332639545
11
63.077783562341
21
61.002419058804
0
LINE
8
LAYER2
62
2
10
61.308337671755
20
62.768505478063
11
59.538891781170
21
64.534591897322
0
LINE
8
LAYER2
62
2
10
57.769445890585
20
66.300678316581
11
56.000000000000
21
68.066764735840
0
LINE
8
LAYER2
62
2
10
54.230554109415
20
69.832851155100
11
52.461108218830
21
71.598937574359
0
LINE
8
LAYER2
62
2
10
50.691662328245
20
73.365023993618
11
48.922216437660
21
75.131110412877
0
LINE
8
LAYER2
62
2
10
47.152770547074
20
76.897196832136
11
45.383324656489
21
78.663283251395
0
LINE
8
LAYER2
62
2
10
43.613878765904
20
80.429369670654
11
41.844432875319
21
82.195456089913
0
LINE
8
LAYER2
62
2
10
40.074986984734
20
83.961542509172
11
38.305541094149
21
85.727628928431
0
LINE
8
LAYER2
62
2
10
36.536095203564
20
87.493715347690
11
34.766649312978
21
89.259801766949
0
LINE
8
LAYER2
62
2
10
32.997203422393
20
91.025888186209
11
31.227757531808
21
92.791974605468
0
LINE
8
LAYER2
62
2
10
29.458311641223
20
94.558061024727
11
27.688865750638
21
96.324147443986
0
LINE
8
LAYER2
62
2
10
25.919419860053
20
98.090233863245
11
24.149973969468
21
99.856320282504
0
LINE
8
LAYER2
62
2
10
22.380528078883
20
101.622406701763
11
20.611082188297
21
103.388493121022
0
LINE
8
LAYER2
62
2
10
20.254505433119
20
106.570136252749
11
22.023951323705
21
104.804049833490
0
LINE
8
LAYER2
62
2
10
23.793397214290
20
103.037963414231
11
25.562843104875
21
101.271876994972
0
LINE
8
LAYER2
62
2
10
27.332288995460
20
99.505790575713
11
29.101734886045
21
97.739704156454
0
LINE
8
LAYER2
62
2
10
30.871180776630
20
95.973617737195
11
32.640626667215
21
94.207531317936
0
LINE
8
LAYER2
62
2
10
34.410072557801
20
92.441444898677
11
36.179518448386
21
90.675358479418
0
LINE
8
LAYER2
62
2
10
37.948964338971
20
88.909272060159
11
39.718410229556
21
87.143185640899
0
LINE
8
LAYER2
62
2
10
41.487856120141
20
85.377099221640
11
43.257302010726
21
83.611012802381
0
LINE
8
LAYER2
62
2
10
45.026747901311
20
81.844926383122
11
46.796193791896
21
80.078839963863
0
LINE
8
LAYER2
62
2
10
48.565639682482
20
78.312753544604
11
50.335085573067
21
76.546667125345
0
LINE
8
LAYER2
62
2
10
52.104531463652
20
74.780580706086
11
53.873977354237
21
73.014494286827
0
LINE
8
LAYER2
62
2
10
55.643423244822
20
71.248407867568
11
57.412869135407
21
69.482321448309
0
LINE
8
LAYER2
62
2
10
59.182315025992
20
67.716235029050
11
60.951760916578
21
65.950148609790
0
LINE
8
LAYER2
62
2
10
62.721206807163
20
64.184062190531
11
64.490652697748
21
62.417975771272
0
LINE
8
LAYER2
62
2
10
66.260098588333
20
60.651889352013
11
68.029544478918
21
58.885802932754
0
LINE
8
LAYER2
62
2
10
69.798990369503
20
57.119716513495
11
71.568436260088
21
55.353630094236
0
LINE
8
LAYER2
62
2
10
73.337882150673
20
53.587543674977
11
75.107328041259
21
51.821457255718
0
LINE
8
LAYER2
62
2
10
76.876773931844
20
50.055370836459
11
78.646219822429
21
48.289284417200
0
LINE
8
LAYER2
62
2
10
80.415665713014
20
46.523197997941
11
82.185111603599
21
44.757111578682
0
LINE
8
LAYER2
62
2
10
83.954557494184
20
42.991025159422
11
85.724003384769
21
41.224938740163
0
LINE
8
LAYER2
62
2
10
87.493449275354
20
39.458852320904
11
89.262895165940
21
37.692765901645
0
LINE
8
LAYER2
62
2
10
91.032341056525
20
35.926679482386
11
92.801786947110
21
34.160593063127
0
LINE
8
LAYER2
62
2
10
94.571232837695
20
32.394506643868
11
93.158363702288
21
30.978949931400
0
LINE
8
LAYER2
62
2
10
18.841636297712
20
105.154579540281
11
20.254505433119
21
106.570136252749
0
LINE
8
LAYER2
62
2
10
101.410845325188
20
32.104556404716
11
100.445172304725
21
34.410521629422
0
LINE
8
LAYER2
62
2
10
99.479499284262
20
36.716486854127
11
98.513826263799
21
39.022452078832
0
LINE
8
LAYER2
62
2
10
97.548153243336
20
41.328417303537
11
96.582480222873
21
43.634382528243
0
LINE
8
LAYER2
62
2
10
95.616807202410
20
45.940347752948
11
94.651134181947
21
48.246312977653
0
LINE
8
LAYER2
62
2
10
93.685461161484
20
50.552278202358
11
92.719788141021
21
52.858243427063
0
LINE
8
LAYER2
62
2
10
91.754115120558
20
55.164208651769
11
90.788442100095
21
57.470173876474
0
LINE
8
LAYER2
62
2
10
89.822769079632
20
59.776139101179
11
88.857096059169
21
62.082104325884
0
LINE
8
LAYER2
62
2
10
87.891423038706
20
64.388069550590
11
86.925750018243
21
66.694034775295
0
LINE
8
LAYER2
62
2
10
85.960076997780
20
69.000000000000
11
84.994403977317
21
71.305965224705
0
LINE
8
LAYER2
62
2
10
84.028730956854
20
73.611930449410
11
83.063057936391
21
75.917895674116
0
LINE
8
LAYER2
62
2
10
82.097384915928
20
78.223860898821
11
81.131711895465
21
80.529826123526
0
LINE
8
LAYER2
62
2
10
80.166038875002
20
82.835791348231
11
79.200365854539
21
85.141756572937
0
LINE
8
LAYER2
62
2
10
78.234692834076
20
87.447721797642
11
77.269019813613
21
89.753687022347
0
LINE
8
LAYER2
62
2
10
76.303346793150
20
92.059652247052
11
75.337673772687
21
94.365617471757
0
LINE
8
LAYER2
62
2
10
74.372000752224
20
96.671582696463
11
73.406327731760
21
98.977547921168
0
LINE
8
LAYER2
62
2
10
72.440654711297
20
101.283513145873
11
71.474981690834
21
103.589478370578
0
LINE
8
LAYER2
62
2
10
72.354080850135
20
106.667982011654
11
73.319753870598
21
104.362016786949
0
LINE
8
LAYER2
62
2
10
74.285426891062
20
102.056051562244
11
75.251099911525
21
99.750086337538
0
LINE
8
LAYER2
62
2
10
76.216772931988
20
97.444121112833
11
77.182445952451
21
95.138155888128
0
LINE
8
LAYER2
62
2
10
78.148118972914
20
92.832190663423
11
79.113791993377
21
90.526225438717
0
LINE
8
LAYER2
62
2
10
80.079465013840
20
88.220260214012
11
81.045138034303
21
85.914294989307
0
LINE
8
LAYER2
62
2
10
82.010811054766
20
83.608329764602
11
82.976484075229
21
81.302364539897
0
LINE
8
LAYER2
62
2
10
83.942157095692
20
78.996399315191
11
84.907830116155
21
76.690434090486
0
LINE
8
LAYER2
62
2
10
85.873503136618
20
74.384468865781
11
86.839176157081
21
72.078503641076
0
LINE
8
LAYER2
62
2
10
87.804849177544
20
69.772538416370
11
88.770522198007
21
67.466573191665
0
LINE
8
LAYER2
62
2
10
89.736195218470
20
65.160607966960
11
90.701868238933
21
62.854642742255
0
LINE
8
LAYER2
62
2
10
91.667541259396
20
60.548677517550
11
92.633214279859
21
58.242712292844
0
LINE
8
LAYER2
62
2
10
93.598887300322
20
55.936747068139
11
94.564560320785
21
53.630781843434
0
LINE
8
LAYER2
62
2
10
95.530233341248
20
51.324816618729
11
96.495906361711
21
49.018851394023
0
LINE
8
LAYER2
62
2
10
97.461579382174
20
46.712886169318
11
98.427252402637
21
44.406920944613
0
LINE
8
LAYER2
62
2
10
99.392925423100
20
42.100955719908
11
100.358598443563
21
39.794990495203
0
LINE
8
LAYER2
62
2
10
101.324271464026
20
37.489025270497
11
102.289944484489
21
35.183060045792
0
LINE
8
LAYER2
62
2
10
103.255617504953
20
32.877094821087
11
101.410845325188
21
32.104556404716
0
LINE
8
LAYER2
62
2
10
70.509308670371
20
105.895443595284
11
72.354080850135
21
106.667982011654
0
LINE
8
LAYER2
62
2
10
110.527267378088
20
31.500000000000
11
110.527267378088
21
34.000000000000
0
LINE
8
LAYER2
62
2
10
110.527267378088
20
36.500000000000
11
110.527267378088
21
39.000000000000
0
LINE
8
LAYER2
62
2
10
110.527267378088
20
41.500000000000
11
110.527267378088
21
44.000000000000
0
LINE
8
LAYER2
62
2
10
110.527267378088
20
46.500000000000
11
110.527267378088
21
49.000000000000
0
LINE
8
LAYER2
62
2
10
110.527267378088
20
51.500000000000
11
110.527267378088
21
54.000000000000
0
LINE
8
LAYER2
62
2
10
110.527267378088
20
56.500000000000
11
110.527267378088
21
59.000000000000
0
LINE
8
LAYER2
62
2
10
110.527267378088
20
61.500000000000
11
110.527267378088
21
64.000000000000
0
LINE
8
LAYER2
62
2
10
110.527267378088
20
66.500000000000
11
110.527267378088
21
69.000000000000
0
LINE
8
LAYER2
62
2
10
110.527267378088
20
71.500000000000
11
110.527267378088
21
74.000000000000
0
LINE
8
LAYER2
62
2
10
110.527267378088
20
76.500000000000
11
110.527267378088
21
79.000000000000
0
LINE
8
LAYER2
62
2
10
110.527267378088
20
81.500000000000
11
110.527267378088
21
84.000000000000
0
LINE
8
LAYER2
62
2
10
110.527267378088
20
86.500000000000
11
110.527267378088
21
89.000000000000
0
LINE
8
LAYER2
62
2
10
110.527267378088
20
91.500000000000
11
110.527267378088
21
94.000000000000
0
LINE
8
LAYER2
62
2
10
110.527267378088
20
96.500000000000
11
110.527267378088
21
99.000000000000
0
LINE
8
LAYER2
62
2
10
110.527267378088
20
101.500000000000
11
110.527267378088
21
104.000000000000
0
LINE
8
LAYER2
62
2
10
112.527267378088
20
106.500000000000
11
112.527267378088
21
104.000000000000
0
LINE
8
LAYER2
62
2
10
112.527267378088
20
101.500000000000
11
112.527267378088
21
99.000000000000
0
LINE
8
LAYER2
62
2
10
112.527267378088
20
96.500000000000
11
112.527267378088
21
94.000000000000
0
LINE
8
LAYER2
62
2
10
112.527267378088
20
91.500000000000
11
112.527267378088
21
89.000000000000
0
LINE
8
LAYER2
62
2
10
112.527267378088
20
86.500000000000
11
112.527267378088
21
84.000000000000
0
LINE
8
LAYER2
62
2
10
112.527267378088
20
81.500000000000
11
112.527267378088
21
79.000000000000
0
LINE
8
LAYER2
62
2
10
112.527267378088
20
76.500000000000
11
112.527267378088
21
74.000000000000
0
LINE
8
LAYER2
62
2
10
112.527267378088
20
71.500000000000
11
112.527267378088
21
69.000000000000
0
LINE
8
LAYER2
62
2
10
112.527267378088
20
66.500000000000
11
112.527267378088
21
64.000000000000
0
LINE
8
LAYER2
62
2
10
112.527267378088
20
61.500000000000
11
112.527267378088
21
59.000000000000
0
LINE
8
LAYER2
62
2
10
112.527267378088
20
56.500000000000
11
112.527267378088
21
54.000000000000
0
LINE
8
LAYER2
62
2
10
112.527267378088
20
51.500000000000
11
112.527267378088
21
49.000000000000
0
LINE
8
LAYER2
62
2
10
112.527267378088
20
46.500000000000
11
112.527267378088
21
44.000000000000
0
LINE
8
LAYER2
62
2
10
112.527267378088
20
41.500000000000
11
112.527267378088
21
39.000000000000
0
LINE
8
LAYER2
62
2
10
112.527267378088
20
36.500000000000
11
112.527267378088
21
34.000000000000
0
LINE
8
LAYER2
62
2
10
112.527267378088
20
31.500000000000
11
110.527267378088
21
31.500000000000
0
LINE
8
LAYER2
62
2
10
110.527267378088
20
106.500000000000
11
112.527267378088
21
106.500000000000
0
LINE
8
LAYER2
62
2
10
135.527267378088
20
31.500000000000
11
135.527267378088
21
34.000000000000
0
LINE
8
LAYER2
62
2
10
135.527267378088
20
36.500000000000
11
135.527267378088
21
39.000000000000
0
LINE
8
LAYER2
62
2
10
135.527267378088
20
41.500000000000
11
135.527267378088
21
44.000000000000
0
LINE
8
LAYER2
62
2
10
135.527267378088
20
46.500000000000
11
135.527267378088
21
49.000000000000
0
LINE
8
LAYER2
62
2
10
135.527267378088
20
51.500000000000
11
135.527267378088
21
54.000000000000
0
LINE
8
LAYER2
62
2
10
135.527267378088
20
56.500000000000
11
135.527267378088
21
59.000000000000
0
LINE
8
LAYER2
62
2
10
135.527267378088
20
61.500000000000
11
135.527267378088
21
64.000000000000
0
LINE
8
LAYER2
62
2
10
135.527267378088
20
66.500000000000
11
135.527267378088
21
69.000000000000
0
LINE
8
LAYER2
62
2
10
135.527267378088
20
71.500000000000
11
135.527267378088
21
74.000000000000
0
LINE
8
LAYER2
62
2
10
135.527267378088
20
76.500000000000
11
135.527267378088
21
79.000000000000
0
LINE
8
LAYER2
62
2
10
135.527267378088
20
81.500000000000
11
135.527267378088
21
84.000000000000
0
LINE
8
LAYER2
62
2
10
135.527267378088
20
86.500000000000
11
135.527267378088
21
89.000000000000
0
LINE
8
LAYER2
62
2
10
135.527267378088
20
91.500000000000
11
135.527267378088
21
94.000000000000
0
LINE
8
LAYER2
62
2
10
135.527267378088
20
96.500000000000
11
135.527267378088
21
99.000000000000
0
LINE
8
LAYER2
62
2
10
135.527267378088
20
101.500000000000
11
135.527267378088
21
104.000000000000
0
LINE
8
LAYER2
62
2
10
137.527267378088
20
106.500000000000
11
137.527267378088
21
104.000000000000
0
LINE
8
LAYER2
62
2
10
137.527267378088
20
101.500000000000
11
137.527267378088
21
99.000000000000
0
LINE
8
LAYER2
62
2
10
137.527267378088
20
96.500000000000
11
137.527267378088
21
94.000000000000
0
LINE
8
LAYER2
62
2
10
137.527267378088
20
91.500000000000
11
137.527267378088
21
89.000000000000
0
LINE
8
LAYER2
62
2
10
137.527267378088
20
86.500000000000
11
137.527267378088
21
84.000000000000
0
LINE
8
LAYER2
62
2
10
137.527267378088
20
81.500000000000
11
137.527267378088
21
79.000000000000
0
LINE
8
LAYER2
62
2
10
137.527267378088
20
76.500000000000
11
137.527267378088
21
74.000000000000
0
LINE
8
LAYER2
62
2
10
137.527267378088
20
71.500000000000
11
137.527267378088
21
69.000000000000
0
LINE
8
LAYER2
62
2
10
137.527267378088
20
66.500000000000
11
137.527267378088
21
64.000000000000
0
LINE
8
LAYER2
62
2
10
137.527267378088
20
61.500000000000
11
137.527267378088
21
59.000000000000
0
LINE
8
LAYER2
62
2
10
137.527267378088
20
56.500000000000
11
137.527267378088
21
54.000000000000
0
LINE
8
LAYER2
62
2
10
137.527267378088
20
51.500000000000
11
137.527267378088
21
49.000000000000
0
LINE
8
LAYER2
62
2
10
137.527267378088
20
46.500000000000
11
137.527267378088
21
44.000000000000
0
LINE
8
LAYER2
62
2
10
137.527267378088
20
41.500000000000
11
137.527267378088
21
39.000000000000
0
LINE
8
LAYER2
62
2
10
137.527267378088
20
36.500000000000
11
137.527267378088
21
34.000000000000
0
LINE
8
LAYER2
62
2
10
137.527267378088
20
31.500000000000
11
135.527267378088
21
31.500000000000
0
LINE
8
LAYER2
62
2
10
135.527267378088
20
106.500000000000
11
137.527267378088
21
106.500000000000
0
LINE
8
LAYER2
62
2
10
160.527267378088
20
31.500000000000
11
160.527267378088
21
34.000000000000
0
LINE
8
LAYER2
62
2
10
160.527267378088
20
36.500000000000
11
160.527267378088
21
39.000000000000
0
LINE
8
LAYER2
62
2
10
160.527267378088
20
41.500000000000
11
160.527267378088
21
44.000000000000
0
LINE
8
LAYER2
62
2
10
160.527267378088
20
46.500000000000
11
160.527267378088
21
49.000000000000
0
LINE
8
LAYER2
62
2
10
160.527267378088
20
51.500000000000
11
160.527267378088
21
54.000000000000
0
LINE
8
LAYER2
62
2
10
160.527267378088
20
56.500000000000
11
160.527267378088
21
59.000000000000
0
LINE
8
LAYER2
62
2
10
160.527267378088
20
61.500000000000
11
160.527267378088
21
64.000000000000
0
LINE
8
LAYER2
62
2
10
160.527267378088
20
66.500000000000
11
160.527267378088
21
69.000000000000
0
LINE
8
LAYER2
62
2
10
160.527267378088
20
71.500000000000
11
160.527267378088
21
74.000000000000
0
LINE
8
LAYER2
62
2
10
160.527267378088
20
76.500000000000
11
160.527267378088
21
79.000000000000
0
LINE
8
LAYER2
62
2
10
160.527267378088
20
81.500000000000
11
160.527267378088
21
84.000000000000
0
LINE
8
LAYER2
62
2
10
160.527267378088
20
86.500000000000
11
160.527267378088
21
89.000000000000
0
LINE
8
LAYER2
62
2
10
160.527267378088
20
91.500000000000
11
160.527267378088
21
94.000000000000
0
LINE
8
LAYER2
62
2
10
160.527267378088
20
96.500000000000
11
160.527267378088
21
99.000000000000
0
LINE
8
LAYER2
62
2
10
160.527267378088
20
101.500000000000
11
160.527267378088
21
104.000000000000
0
LINE
8
LAYER2
62
2
10
162.527267378088
20
106.500000000000
11
162.527267378088
21
104.000000000000
0
LINE
8
LAYER2
62
2
10
162.527267378088
20
101.500000000000
11
162.527267378088
21
99.000000000000
0
LINE
8
LAYER2
62
2
10
162.527267378088
20
96.500000000000
11
162.527267378088
21
94.000000000000
0
LINE
8
LAYER2
62
2
10
162.527267378088
20
91.500000000000
11
162.527267378088
21
89.000000000000
0
LINE
8
LAYER2
62
2
10
162.527267378088
20
86.500000000000
11
162.527267378088
21
84.000000000000
0
LINE
8
LAYER2
62
2
10
162.527267378088
20
81.500000000000
11
162.527267378088
21
79.000000000000
0
LINE
8
LAYER2
62
2
10
162.527267378088
20
76.500000000000
11
162.527267378088
21
74.000000000000
0
LINE
8
LAYER2
62
2
10
162.527267378088
20
71.500000000000
11
162.527267378088
21
69.000000000000
0
LINE
8
LAYER2
62
2
10
162.527267378088
20
66.500000000000
11
162.527267378088
21
64.000000000000
0
LINE
8
LAYER2
62
2
10
162.527267378088
20
61.500000000000
11
162.527267378088
21
59.000000000000
0
LINE
8
LAYER2
62
2
10
162.527267378088
20
56.500000000000
11
162.527267378088
21
54.000000000000
0
LINE
8
LAYER2
62
2
10
162.527267378088
20
51.500000000000
11
162.527267378088
21
49.000000000000
0
LINE
8
LAYER2
62
2
10
162.527267378088
20
46.500000000000
11
162.527267378088
21
44.000000000000
0
LINE
8
LAYER2
62
2
10
162.527267378088
20
41.500000000000
11
162.527267378088
21
39.000000000000
0
LINE
8
LAYER2
62
2
10
162.527267378088
20
36.500000000000
11
162.527267378088
21
34.000000000000
0
LINE
8
LAYER2
62
2
10
162.527267378088
20
31.500000000000
11
160.527267378088
21
31.500000000000
0
LINE
8
LAYER2
62
2
10
160.527267378088
20
106.500000000000
11
162.527267378088
21
106.500000000000
0
LINE
8
LAYER2
62
2
10
185.527267378088
20
31.500000000000
11
185.527267378088
21
34.000000000000
0
LINE
8
LAYER2
62
2
10
185.527267378088
20
36.500000000000
11
185.527267378088
21
39.000000000000
0
LINE
8
LAYER2
62
2
10
185.527267378088
20
41.500000000000
11
185.527267378088
21
44.000000000000
0
LINE
8
LAYER2
62
2
10
185.527267378088
20
46.500000000000
11
185.527267378088
21
49.000000000000
0
LINE
8
LAYER2
62
2
10
185.527267378088
20
51.500000000000
11
185.527267378088
21
54.000000000000
0
LINE
8
LAYER2
62
2
10
185.527267378088
20
56.500000000000
11
185.527267378088
21
59.000000000000
0
LINE
8
LAYER2
62
2
10
185.527267378088
20
61.500000000000
11
185.527267378088
21
64.000000000000
0
LINE
8
LAYER2
62
2
10
185.527267378088
20
66.500000000000
11
185.527267378088
21
69.000000000000
0
LINE
8
LAYER2
62
2
10
185.527267378088
20
71.500000000000
11
185.527267378088
21
74.000000000000
0
LINE
8
LAYER2
62
2
10
185.527267378088
20
76.500000000000
11
185.527267378088
21
79.000000000000
0
LINE
8
LAYER2
62
2
10
185.527267378088
20
81.500000000000
11
185.527267378088
21
84.000000000000
0
LINE
8
LAYER2
62
2
10
185.527267378088
20
86.500000000000
11
185.527267378088
21
89.000000000000
0
LINE
8
LAYER2
62
2
10
185.527267378088
20
91.500000000000
11
185.527267378088
21
94.000000000000
0
LINE
8
LAYER2
62
2
10
185.527267378088
20
96.500000000000
11
185.527267378088
21
99.000000000000
0
LINE
8
LAYER2
62
2
10
185.527267378088
20
101.500000000000
11
185.527267378088
21
104.000000000000
0
LINE
8
LAYER2
62
2
10
187.527267378088
20
106.500000000000
11
187.527267378088
21
104.000000000000
0
LINE
8
LAYER2
62
2
10
187.527267378088
20
101.500000000000
11
187.527267378088
21
99.000000000000
0
LINE
8
LAYER2
62
2
10
187.527267378088
20
96.500000000000
11
187.527267378088
21
94.000000000000
0
LINE
8
LAYER2
62
2
10
187.527267378088
20
91.500000000000
11
187.527267378088
21
89.000000000000
0
LINE
8
LAYER2
62
2
10
187.527267378088
20
86.500000000000
11
187.527267378088
21
84.000000000000
0
LINE
8
LAYER2
62
2
10
187.527267378088
20
81.500000000000
11
187.527267378088
21
79.000000000000
0
LINE
8
LAYER2
62
2
10
187.527267378088
20
76.500000000000
11
187.527267378088
21
74.000000000000
0
LINE
8
LAYER2
62
2
10
187.527267378088
20
71.500000000000
11
187.527267378088
21
69.000000000000
0
LINE
8
LAYER2
62
2
10
187.527267378088
20
66.500000000000
11
187.527267378088
21
64.000000000000
0
LINE
8
LAYER2
62
2
10
187.527267378088
20
61.500000000000
11
187.527267378088
21
59.000000000000
0
LINE
8
LAYER2
62
2
10
187.527267378088
20
56.500000000000
11
187.527267378088
21
54.000000000000
0
LINE
8
LAYER2
62
2
10
187.527267378088
20
51.500000000000
11
187.527267378088
21
49.000000000000
0
LINE
8
LAYER2
62
2
10
187.527267378088
20
46.500000000000
11
187.527267378088
21
44.000000000000
0
LINE
8
LAYER2
62
2
10
187.527267378088
20
41.500000000000
11
187.527267378088
21
39.000000000000
0
LINE
8
LAYER2
62
2
10
187.527267378088
20
36.500000000000
11
187.527267378088
21
34.000000000000
0
LINE
8
LAYER2
62
2
10
187.527267378088
20
31.500000000000
11
185.527267378088
21
31.500000000000
0
LINE
8
LAYER2
62
2
10
185.527267378088
20
106.500000000000
11
187.527267378088
21
106.500000000000
0
LINE
8
LAYER2
62
2
10
210.527267378088
20
31.500000000000
11
210.527267378088
21
34.000000000000
0
LINE
8
LAYER2
62
2
10
210.527267378088
20
36.500000000000
11
210.527267378088
21
39.000000000000
0
LINE
8
LAYER2
62
2
10
210.527267378088
20
41.500000000000
11
210.527267378088
21
44.000000000000
0
LINE
8
LAYER2
62
2
10
210.527267378088
20
46.500000000000
11
210.527267378088
21
49.000000000000
0
LINE
8
LAYER2
62
2
10
210.527267378088
20
51.500000000000
11
210.527267378088
21
54.000000000000
0
LINE
8
LAYER2
62
2
10
210.527267378088
20
56.500000000000
11
210.527267378088
21
59.000000000000
0
LINE
8
LAYER2
62
2
10
210.527267378088
20
61.500000000000
11
210.527267378088
21
64.000000000000
0
LINE
8
LAYER2
62
2
10
210.527267378088
20
66.500000000000
11
210.527267378088
21
69.000000000000
0
LINE
8
LAYER2
62
2
10
210.527267378088
20
71.500000000000
11
210.527267378088
21
74.000000000000
0
LINE
8
LAYER2
62
2
10
210.527267378088
20
76.500000000000
11
210.527267378088
21
79.000000000000
0
LINE
8
LAYER2
62
2
10
210.527267378088
20
81.500000000000
11
210.527267378088
21
84.000000000000
0
LINE
8
LAYER2
62
2
10
210.527267378088
20
86.500000000000
11
210.527267378088
21
89.000000000000
0
LINE
8
LAYER2
62
2
10
210.527267378088
20
91.500000000000
11
210.527267378088
21
94.000000000000
0
LINE
8
LAYER2
62
2
10
210.527267378088
20
96.500000000000
11
210.527267378088
21
99.000000000000
0
LINE
8
LAYER2
62
2
10
210.527267378088
20
101.500000000000
11
210.527267378088
21
104.000000000000
0
LINE
8
LAYER2
62
2
10
212.527267378088
20
106.500000000000
11
212.527267378088
21
104.000000000000
0
LINE
8
LAYER2
62
2
10
212.527267378088
20
101.500000000000
11
212.527267378088
21
99.000000000000
0
LINE
8
LAYER2
62
2
10
212.527267378088
20
96.500000000000
11
212.527267378088
21
94.000000000000
0
LINE
8
LAYER2
62
2
10
212.527267378088
20
91.500000000000
11
212.527267378088
21
89.000000000000
0
LINE
8
LAYER2
62
2
10
212.527267378088
20
86.500000000000
11
212.527267378088
21
84.000000000000
0
LINE
8
LAYER2
62
2
10
212.527267378088
20
81.500000000000
11
212.527267378088
21
79.000000000000
0
LINE
8
LAYER2
62
2
10
212.527267378088
20
76.500000000000
11
212.527267378088
21
74.000000000000
0
LINE
8
LAYER2
62
2
10
212.527267378088
20
71.500000000000
11
212.527267378088
21
69.000000000000
0
LINE
8
LAYER2
62
2
10
212.527267378088
20
66.500000000000
11
212.527267378088
21
64.000000000000
0
LINE
8
LAYER2
62
2
10
212.527267378088
20
61.500000000000
11
212.527267378088
21
59.000000000000
0
LINE
8
LAYER2
62
2
10
212.527267378088
20
56.500000000000
11
212.527267378088
21
54.000000000000
0
LINE
8
LAYER2
62
2
10
212.527267378088
20
51.500000000000
11
212.527267378088
21
49.000000000000
0
LINE
8
LAYER2
62
2
10
212.527267378088
20
46.500000000000
11
212.527267378088
21
44.000000000000
0
LINE
8
LAYER2
62
2
10
212.527267378088
20
41.500000000000
11
212.527267378088
21
39.000000000000
0
LINE
8
LAYER2
62
2
10
212.527267378088
20
36.500000000000
11
212.527267378088
21
34.000000000000
0
LINE
8
LAYER2
62
2
10
212.527267378088
20
31.500000000000
11
210.527267378088
21
31.500000000000
0
LINE
8
LAYER2
62
2
10
210.527267378088
20
106.500000000000
11
212.527267378088
21
106.500000000000
0
LINE
8
LAYER2
62
2
10
235.527267378088
20
31.500000000000
11
235.527267378088
21
34.000000000000
0
LINE
8
LAYER2
62
2
10
235.527267378088
20
36.500000000000
11
235.527267378088
21
39.000000000000
0
LINE
8
LAYER2
62
2
10
235.527267378088
20
41.500000000000
11
235.527267378088
21
44.000000000000
0
LINE
8
LAYER2
62
2
10
235.527267378088
20
46.500000000000
11
235.527267378088
21
49.000000000000
0
LINE
8
LAYER2
62
2
10
235.527267378088
20
51.500000000000
11
235.527267378088
21
54.000000000000
0
LINE
8
LAYER2
62
2
10
235.527267378088
20
56.500000000000
11
235.527267378088
21
59.000000000000
0
LINE
8
LAYER2
62
2
10
235.527267378088
20
61.500000000000
11
235.527267378088
21
64.000000000000
0
LINE
8
LAYER2
62
2
10
235.527267378088
20
66.500000000000
11
235.527267378088
21
69.000000000000
0
LINE
8
LAYER2
62
2
10
235.527267378088
20
71.500000000000
11
235.527267378088
21
74.000000000000
0
LINE
8
LAYER2
62
2
10
235.527267378088
20
76.500000000000
11
235.527267378088
21
79.000000000000
0
LINE
8
LAYER2
62
2
10
235.527267378088
20
81.500000000000
11
235.527267378088
21
84.000000000000
0
LINE
8
LAYER2
62
2
10
235.527267378088
20
86.500000000000
11
235.527267378088
21
89.000000000000
0
LINE
8
LAYER2
62
2
10
235.527267378088
20
91.500000000000
11
235.527267378088
21
94.000000000000
0
LINE
8
LAYER2
62
2
10
235.527267378088
20
96.500000000000
11
235.527267378088
21
99.000000000000
0
LINE
8
LAYER2
62
2
10
235.527267378088
20
101.500000000000
11
235.527267378088
21
104.000000000000
0
LINE
8
LAYER2
62
2
10
237.527267378088
20
106.500000000000
11
237.527267378088
21
104.000000000000
0
LINE
8
LAYER2
62
2
10
237.527267378088
20
101.500000000000
11
237.527267378088
21
99.000000000000
0
LINE
8
LAYER2
62
2
10
237.527267378088
20
96.500000000000
11
237.527267378088
21
94.000000000000
0
LINE
8
LAYER2
62
2
10
237.527267378088
20
91.500000000000
11
237.527267378088
21
89.000000000000
0
LINE
8
LAYER2
62
2
10
237.527267378088
20
86.500000000000
11
237.527267378088
21
84.000000000000
0
LINE
8
LAYER2
62
2
10
237.527267378088
20
81.500000000000
11
237.527267378088
21
79.000000000000
0
LINE
8
LAYER2
62
2
10
237.527267378088
20
76.500000000000
11
237.527267378088
21
74.000000000000
0
LINE
8
LAYER2
62
2
10
237.527267378088
20
71.500000000000
11
237.527267378088
21
69.000000000000
0
LINE
8
LAYER2
62
2
10
237.527267378088
20
66.500000000000
11
237.527267378088
21
64.000000000000
0
LINE
8
LAYER2
62
2
10
237.527267378088
20
61.500000000000
11
237.527267378088
21
59.000000000000
0
LINE
8
LAYER2
62
2
10
237.527267378088
20
56.500000000000
11
237.527267378088
21
54.000000000000
0
LINE
8
LAYER2
62
2
10
237.527267378088
20
51.500000000000
11
237.527267378088
21
49.000000000000
0
LINE
8
LAYER2
62
2
10
237.527267378088
20
46.500000000000
11
237.527267378088
21
44.000000000000
0
LINE
8
LAYER2
62
2
10
237.527267378088
20
41.500000000000
11
237.527267378088
21
39.000000000000
0
LINE
8
LAYER2
62
2
10
237.527267378088
20
36.500000000000
11
237.527267378088
21
34.000000000000
0
LINE
8
LAYER2
62
2
10
237.527267378088
20
31.500000000000
11
235.527267378088
21
31.500000000000
0
LINE
8
LAYER2
62
2
10
235.527267378088
20
106.500000000000
11
237.527267378088
21
106.500000000000
0
LINE
8
LAYER2
62
2
10
260.527267378088
20
31.500000000000
11
260.527267378088
21
34.000000000000
0
LINE
8
LAYER2
62
2
10
260.527267378088
20
36.500000000000
11
260.527267378088
21
39.000000000000
0
LINE
8
LAYER2
62
2
10
260.527267378088
20
41.500000000000
11
260.527267378088
21
44.000000000000
0
LINE
8
LAYER2
62
2
10
260.527267378088
20
46.500000000000
11
260.527267378088
21
49.000000000000
0
LINE
8
LAYER2
62
2
10
260.527267378088
20
51.500000000000
11
260.527267378088
21
54.000000000000
0
LINE
8
LAYER2
62
2
10
260.527267378088
20
56.500000000000
11
260.527267378088
21
59.000000000000
0
LINE
8
LAYER2
62
2
10
260.527267378088
20
61.500000000000
11
260.527267378088
21
64.000000000000
0
LINE
8
LAYER2
62
2
10
260.527267378088
20
66.500000000000
11
260.527267378088
21
69.000000000000
0
LINE
8
LAYER2
62
2
10
260.527267378088
20
71.500000000000
11
260.527267378088
21
74.000000000000
0
LINE
8
LAYER2
62
2
10
260.527267378088
20
76.500000000000
11
260.527267378088
21
79.000000000000
0
LINE
8
LAYER2
62
2
10
260.527267378088
20
81.500000000000
11
260.527267378088
21
84.000000000000
0
LINE
8
LAYER2
62
2
10
260.527267378088
20
86.500000000000
11
260.527267378088
21
89.000000000000
0
LINE
8
LAYER2
62
2
10
260.527267378088
20
91.500000000000
11
260.527267378088
21
94.000000000000
0
LINE
8
LAYER2
62
2
10
260.527267378088
20
96.500000000000
11
260.527267378088
21
99.000000000000
0
LINE
8
LAYER2
62
2
10
260.527267378088
20
101.500000000000
11
260.527267378088
21
104.000000000000
0
LINE
8
LAYER2
62
2
10
262.527267378088
20
106.500000000000
11
262.527267378088
21
104.000000000000
0
LINE
8
LAYER2
62
2
10
262.527267378088
20
101.500000000000
11
262.527267378088
21
99.000000000000
0
LINE
8
LAYER2
62
2
10
262.527267378088
20
96.500000000000
11
262.527267378088
21
94.000000000000
0
LINE
8
LAYER2
62
2
10
262.527267378088
20
91.500000000000
11
262.527267378088
21
89.000000000000
0
LINE
8
LAYER2
62
2
10
262.527267378088
20
86.500000000000
11
262.527267378088
21
84.000000000000
0
LINE
8
LAYER2
62
2
10
262.527267378088
20
81.500000000000
11
262.527267378088
21
79.000000000000
0
LINE
8
LAYER2
62
2
10
262.527267378088
20
76.500000000000
11
262.527267378088
21
74.000000000000
0
LINE
8
LAYER2
62
2
10
262.527267378088
20
71.500000000000
11
262.527267378088
21
69.000000000000
0
LINE
8
LAYER2
62
2
10
262.527267378088
20
66.500000000000
11
262.527267378088
21
64.000000000000
0
LINE
8
LAYER2
62
2
10
262.527267378088
20
61.500000000000
11
262.527267378088
21
59.000000000000
0
LINE
8
LAYER2
62
2
10
262.527267378088
20
56.500000000000
11
262.527267378088
21
54.000000000000
0
LINE
8
LAYER2
62
2
10
262.527267378088
20
51.500000000000
11
262.527267378088
21
49.000000000000
0
LINE
8
LAYER2
62
2
10
262.527267378088
20
46.500000000000
11
262.527267378088
21
44.000000000000
0
LINE
8
LAYER2
62
2
10
262.527267378088
20
41.500000000000
11
262.527267378088
21
39.000000000000
0
LINE
8
LAYER2
62
2
10
262.527267378088
20
36.500000000000
11
262.527267378088
21
34.000000000000
0
LINE
8
LAYER2
62
2
10
262.527267378088
20
31.500000000000
11
260.527267378088
21
31.500000000000
0
LINE
8
LAYER2
62
2
10
260.527267378088
20
106.500000000000
11
262.527267378088
21
106.500000000000
0
LINE
8
LAYER2
62
2
10
285.527267378088
20
31.500000000000
11
285.527267378088
21
34.000000000000
0
LINE
8
LAYER2
62
2
10
285.527267378088
20
36.500000000000
11
285.527267378088
21
39.000000000000
0
LINE
8
LAYER2
62
2
10
285.527267378088
20
41.500000000000
11
285.527267378088
21
44.000000000000
0
LINE
8
LAYER2
62
2
10
285.527267378088
20
46.500000000000
11
285.527267378088
21
49.000000000000
0
LINE
8
LAYER2
62
2
10
285.527267378088
20
51.500000000000
11
285.527267378088
21
54.000000000000
0
LINE
8
LAYER2
62
2
10
285.527267378088
20
56.500000000000
11
285.527267378088
21
59.000000000000
0
LINE
8
LAYER2
62
2
10
285.527267378088
20
61.500000000000
11
285.527267378088
21
64.000000000000
0
LINE
8
LAYER2
62
2
10
285.527267378088
20
66.500000000000
11
285.527267378088
21
69.000000000000
0
LINE
8
LAYER2
62
2
10
285.527267378088
20
71.500000000000
11
285.527267378088
21
74.000000000000
0
LINE
8
LAYER2
62
2
10
285.527267378088
20
76.500000000000
11
285.527267378088
21
79.000000000000
0
LINE
8
LAYER2
62
2
10
285.527267378088
20
81.500000000000
11
285.527267378088
21
84.000000000000
0
LINE
8
LAYER2
62
2
10
285.527267378088
20
86.500000000000
11
285.527267378088
21
89.000000000000
0
LINE
8
LAYER2
62
2
10
285.527267378088
20
91.500000000000
11
285.527267378088
21
94.000000000000
0
LINE
8
LAYER2
62
2
10
285.527267378088
20
96.500000000000
11
285.527267378088
21
99.000000000000
0
LINE
8
LAYER2
62
2
10
285.527267378088
20
101.500000000000
11
285.527267378088
21
104.000000000000
0
LINE
8
LAYER2
62
2
10
287.527267378088
20
106.500000000000
11
287.527267378088
21
104.000000000000
0
LINE
8
LAYER2
62
2
10
287.527267378088
20
101.500000000000
11
287.527267378088
21
99.000000000000
0
LINE
8
LAYER2
62
2
10
287.527267378088
20
96.500000000000
11
287.527267378088
21
94.000000000000
0
LINE
8
LAYER2
62
2
10
287.527267378088
20
91.500000000000
11
287.527267378088
21
89.000000000000
0
LINE
8
LAYER2
62
2
10
287.527267378088
20
86.500000000000
11
287.527267378088
21
84.000000000000
0
LINE
8
LAYER2
62
2
10
287.527267378088
20
81.500000000000
11
287.527267378088
21
79.000000000000
0
LINE
8
LAYER2
62
2
10
287.527267378088
20
76.500000000000
11
287.527267378088
21
74.000000000000
0
LINE
8
LAYER2
62
2
10
287.527267378088
20
71.500000000000
11
287.527267378088
21
69.000000000000
0
LINE
8
LAYER2
62
2
10
287.527267378088
20
66.500000000000
11
287.527267378088
21
64.000000000000
0
LINE
8
LAYER2
62
2
10
287.527267378088
20
61.500000000000
11
287.527267378088
21
59.000000000000
0
LINE
8
LAYER2
62
2
10
287.527267378088
20
56.500000000000
11
287.527267378088
21
54.000000000000
0
LINE
8
LAYER2
62
2
10
287.527267378088
20
51.500000000000
11
287.527267378088
21
49.000000000000
0
LINE
8
LAYER2
62
2
10
287.527267378088
20
46.500000000000
11
287.527267378088
21
44.000000000000
0
LINE
8
LAYER2
62
2
10
287.527267378088
20
41.500000000000
11
287.527267378088
21
39.000000000000
0
LINE
8
LAYER2
62
2
10
287.527267378088
20
36.500000000000
11
287.527267378088
21
34.000000000000
0
LINE
8
LAYER2
62
2
10
287.527267378088
20
31.500000000000
11
285.527267378088
21
31.500000000000
0
LINE
8
LAYER2
62
2
10
285.527267378088
20
106.500000000000
11
287.527267378088
21
106.500000000000
0
LINE
8
LAYER2
62
2
10
294.281600658030
20
32.791586190174
11
295.310070513703
21
35.070237053288
0
LINE
8
LAYER2
62
2
10
296.338540369377
20
37.348887916402
11
297.367010225050
21
39.627538779516
0
LINE
8
LAYER2
62
2
10
298.395480080724
20
41.906189642631
11
299.423949936398
21
44.184840505745
0
LINE
8
LAYER2
62
2
10
300.452419792071
20
46.463491368859
11
301.480889647745
21
48.742142231973
0
LINE
8
LAYER2
62
2
10
302.509359503419
20
51.020793095087
11
303.537829359092
21
53.299443958201
0
LINE
8
LAYER2
62
2
10
304.566299214766
20
55.578094821315
11
305.594769070439
21
57.856745684429
0
LINE
8
LAYER2
62
2
10
306.623238926113
20
60.135396547544
11
307.651708781787
21
62.414047410658
0
LINE
8
LAYER2
62
2
10
308.680178637460
20
64.692698273772
11
309.708648493134
21
66.971349136886
0
LINE
8
LAYER2
62
2
10
310.737118348807
20
69.250000000000
11
311.765588204481
21
71.528650863114
0
LINE
8
LAYER2
62
2
10
312.794058060155
20
73.807301726228
11
313.822527915828
21
76.085952589342
0
LINE
8
LAYER2
62
2
10
314.850997771502
20
78.364603452457
11
315.879467627176
21
80.643254315571
0
LINE
8
LAYER2
62
2
10
316.907937482849
20
82.921905178685
11
317.936407338523
21
85.200556041799
0
LINE
8
LAYER2
62
2
10
318.964877194196
20
87.479206904913
11
319.993347049870
21
89.757857768027
0
LINE
8
LAYER2
62
2
10
321.021816905544
20
92.036508631141
11
322.050286761217
21
94.315159494255
0
LINE
8
LAYER2
62
2
10
323.078756616891
20
96.593810357370
11
324.107226472565
21
98.872461220484
0
LINE
8
LAYER2
62
2
10
325.135696328238
20
101.151112083598
11
326.164166183912
21
103.429762946712
0
LINE
8
LAYER2
62
2
10
329.015556730076
20
104.885637925287
11
327.987086874402
21
102.606987062173
0
LINE
8
LAYER2
62
2
10
326.958617018729
20
100.328336199059
11
325.930147163055
21
98.049685335945
0
LINE
8
LAYER2
62
2
10
324.901677307382
20
95.771034472831
11
323.873207451708
21
93.492383609716
0
LINE
8
LAYER2
62
2
10
322.844737596034
20
91.213732746602
11
321.816267740361
21
88.935081883488
0
LINE
8
LAYER2
62
2
10
320.787797884687
20
86.656431020374
11
319.759328029013
21
84.377780157260
0
LINE
8
LAYER2
62
2
10
318.730858173340
20
82.099129294146
11
317.702388317666
21
79.820478431032
0
LINE
8
LAYER2
62
2
10
316.673918461993
20
77.541827567918
11
315.645448606319
21
75.263176704803
0
LINE
8
LAYER2
62
2
10
314.616978750645
20
72.984525841689
11
313.588508894972
21
70.705874978575
0
LINE
8
LAYER2
62
2
10
312.560039039298
20
68.427224115461
11
311.531569183624
21
66.148573252347
0
LINE
8
LAYER2
62
2
10
310.503099327951
20
63.869922389233
11
309.474629472277
21
61.591271526119
0
LINE
8
LAYER2
62
2
10
308.446159616604
20
59.312620663005
11
307.417689760930
21
57.033969799890
0
LINE
8
LAYER2
62
2
10
306.389219905256
20
54.755318936776
11
305.360750049583
21
52.476668073662
0
LINE
8
LAYER2
62
2
10
304.332280193909
20
50.198017210548
11
303.303810338236
21
47.919366347434
0
LINE
8
LAYER2
62
2
10
302.275340482562
20
45.640715484320
11
301.246870626888
21
43.362064621206
0
LINE
8
LAYER2
62
2
10
300.218400771215
20
41.083413758092
11
299.189930915541
21
38.804762894978
0
LINE
8
LAYER2
62
2
10
298.161461059867
20
36.526112031863
11
297.132991204194
21
34.247461168749
0
LINE
8
LAYER2
62
2
10
296.104521348521
20
31.968810305635
11
294.281600658030
21
32.791586190174
0
LINE
8
LAYER2
62
2
10
327.192636039585
20
105.708413809826
11
329.015556730076
21
104.885637925287
0
LINE
8
LAYER2
62
2
10
298.220463217562
20
26.186836928094
11
300.019488778631
21
27.922782500576
0
LINE
8
LAYER2
62
2
10
301.818514339699
20
29.658728073059
11
303.617539900767
21
31.394673645542
0
LINE
8
LAYER2
62
2
10
305.416565461836
20
33.130619218024
11
307.215591022904
21
34.866564790507
0
LINE
8
LAYER2
62
2
10
309.014616583973
20
36.602510362990
11
310.813642145041
21
38.338455935472
0
LINE
8
LAYER2
62
2
10
312.612667706110
20
40.074401507955
11
314.411693267178
21
41.810347080438
0
LINE
8
LAYER2
62
2
10
316.210718828247
20
43.546292652921
11
318.009744389315
21
45.282238225403
0
LINE
8
LAYER2
62
2
10
319.808769950384
20
47.018183797886
11
321.607795511452
21
48.754129370369
0
LINE
8
LAYER2
62
2
10
323.406821072520
20
50.490074942851
11
325.205846633589
21
52.226020515334
0
LINE
8
LAYER2
62
2
10
327.004872194657
20
53.961966087817
11
328.803897755726
21
55.697911660299
0
LINE
8
LAYER2
62
2
10
330.602923316794
20
57.433857232782
11
332.401948877863
21
59.169802805265
0
LINE
8
LAYER2
62
2
10
334.200974438931
20
60.905748377747
11
336.000000000000
21
62.641693950230
0
LINE
8
LAYER2
62
2
10
337.799025561068
20
64.377639522713
11
339.598051122136
21
66.113585095196
0
LINE
8
LAYER2
62
2
10
341.397076683205
20
67.849530667678
11
343.196102244273
21
69.585476240161
0
LINE
8
LAYER2
62
2
10
344.995127805342
20
71.321421812644
11
346.794153366410
21
73.057367385126
0
LINE
8
LAYER2
62
2
10
348.593178927479
20
74.793312957609
11
350.392204488547
21
76.529258530092
0
LINE
8
LAYER2
62
2
10
352.191230049616
20
78.265204102574
11
353.990255610684
21
80.001149675057
0
LINE
8
LAYER2
62
2
10
355.789281171752
20
81.737095247540
11
357.588306732821
21
83.473040820023
0
LINE
8
LAYER2
62
2
10
359.387332293889
20
85.208986392505
11
361.186357854958
21
86.944931964988
0
LINE
8
LAYER2
62
2
10
362.985383416026
20
88.680877537471
11
364.784408977095
21
90.416823109953
0
LINE
8
LAYER2
62
2
10
366.583434538163
20
92.152768682436
11
368.382460099232
21
93.888714254919
0
LINE
8
LAYER2
62
2
10
370.181485660300
20
95.624659827401
11
371.980511221368
21
97.360605399884
0
LINE
8
LAYER2
62
2
10
375.168293240424
20
97.657330523512
11
373.369267679356
21
95.921384951029
0
LINE
8
LAYER2
62
2
10
371.570242118287
20
94.185439378547
11
369.771216557219
21
92.449493806064
0
LINE
8
LAYER2
62
2
10
367.972190996150
20
90.713548233581
11
366.173165435082
21
88.977602661099
0
LINE
8
LAYER2
62
2
10
364.374139874013
20
87.241657088616
11
362.575114312945
21
85.505711516133
0
LINE
8
LAYER2
62
2
10
360.776088751877
20
83.769765943650
11
358.977063190808
21
82.033820371168
0
LINE
8
LAYER2
62
2
10
357.178037629740
20
80.297874798685
11
355.379012068671
21
78.561929226202
0
LINE
8
LAYER2
62
2
10
353.579986507603
20
76.825983653720
11
351.780960946534
21
75.090038081237
0
LINE
8
LAYER2
62
2
10
349.981935385466
20
73.354092508754
11
348.182909824397
21
71.618146936272
0
LINE
8
LAYER2
62
2
10
346.383884263329
20
69.882201363789
11
344.584858702260
21
68.146255791306
0
LINE
8
LAYER2
62
2
10
342.785833141192
20
66.410310218824
11
340.986807580124
21
64.674364646341
0
LINE
8
LAYER2
62
2
10
339.187782019055
20
62.938419073858
11
337.388756457987
21
61.202473501375
0
LINE
8
LAYER2
62
2
10
335.589730896918
20
59.466527928893
11
333.790705335850
21
57.730582356410
0
LINE
8
LAYER2
62
2
10
331.991679774781
20
55.994636783927
11
330.192654213713
21
54.258691211445
0
LINE
8
LAYER2
62
2
10
328.393628652644
20
52.522745638962
11
326.594603091576
21
50.786800066479
0
LINE
8
LAYER2
62
2
10
324.795577530508
20
49.050854493997
11
322.996551969439
21
47.314908921514
0
LINE
8
LAYER2
62
2
10
321.197526408371
20
45.578963349031
11
319.398500847302
21
43.843017776549
0
LINE
8
LAYER2
62
2
10
317.599475286234
20
42.107072204066
11
315.800449725165
21
40.371126631583
0
LINE
8
LAYER2
62
2
10
314.001424164097
20
38.635181059100
11
312.202398603028
21
36.899235486618
0
LINE
8
LAYER2
62
2
10
310.403373041960
20
35.163289914135
11
308.604347480892
21
33.427344341652
0
LINE
8
LAYER2
62
2
10
306.805321919823
20
31.691398769170
11
305.006296358755
21
29.955453196687
0
LINE
8
LAYER2
62
2
10
303.207270797686
20
28.219507624204
11
301.408245236618
21
26.483562051722
0
LINE
8
LAYER2
62
2
10
299.609219675548
20
24.747616479239
11
298.220463217562
21
26.186836928094
0
LINE
8
LAYER2
62
2
10
373.779536782438
20
99.096550972367
11
375.168293240424
21
97.657330523512
0
LINE
8
LAYER2
62
2
10
298.225581265911
20
21.516736960675
11
300.586482436791
21
22.339017728622
0
LINE
8
LAYER2
62
2
10
302.947383607672
20
23.161298496568
11
305.308284778553
21
23.983579264515
0
LINE
8
LAYER2
62
2
10
307.669185949433
20
24.805860032461
11
310.030087120314
21
25.628140800408
0
LINE
8
LAYER2
62
2
10
312.390988291194
20
26.450421568354
11
314.751889462075
21
27.272702336301
0
LINE
8
LAYER2
62
2
10
317.112790632956
20
28.094983104247
11
319.473691803836
21
28.917263872194
0
LINE
8
LAYER2
62
2
10
321.834592974717
20
29.739544640140
11
324.195494145597
21
30.561825408087
0
LINE
8
LAYER2
62
2
10
326.556395316478
20
31.384106176033
11
328.917296487358
21
32.206386943980
0
LINE
8
LAYER2
62
2
10
331.278197658239
20
33.028667711926
11
333.639098829120
21
33.850948479873
0
LINE
8
LAYER2
62
2
10
336.000000000000
20
34.673229247819
11
338.360901170881
21
35.495510015766
0
LINE
8
LAYER2
62
2
10
340.721802341761
20
36.317790783712
11
343.082703512642
21
37.140071551659
0
LINE
8
LAYER2
62
2
10
345.443604683523
20
37.962352319605
11
347.804505854403
21
38.784633087552
0
LINE
8
LAYER2
62
2
10
350.165407025284
20
39.606913855498
11
352.526308196164
21
40.429194623445
0
LINE
8
LAYER2
62
2
10
354.887209367045
20
41.251475391392
11
357.248110537926
21
42.073756159338
0
LINE
8
LAYER2
62
2
10
359.609011708806
20
42.896036927285
11
361.969912879687
21
43.718317695231
0
LINE
8
LAYER2
62
2
10
364.330814050567
20
44.540598463178
11
366.691715221448
21
45.362879231124
0
LINE
8
LAYER2
62
2
10
369.052616392329
20
46.185159999071
11
371.413517563209
21
47.007440767017
0
LINE
8
LAYER2
62
2
10
374.432243348446
20
45.941000598259
11
372.071342177566
21
45.118719830313
0
LINE
8
LAYER2
62
2
10
369.710441006685
20
44.296439062366
11
367.349539835805
21
43.474158294420
0
LINE
8
LAYER2
62
2
10
364.988638664924
20
42.651877526473
11
362.627737494044
21
41.829596758527
0
LINE
8
LAYER2
62
2
10
360.266836323163
20
41.007315990580
11
357.905935152282
21
40.185035222634
0
LINE
8
LAYER2
62
2
10
355.545033981402
20
39.362754454687
11
353.184132810521
21
38.540473686741
0
LINE
8
LAYER2
62
2
10
350.823231639641
20
37.718192918794
11
348.462330468760
21
36.895912150848
0
LINE
8
LAYER2
62
2
10
346.101429297879
20
36.073631382901
11
343.740528126999
21
35.251350614954
0
LINE
8
LAYER2
62
2
10
341.379626956118
20
34.429069847008
11
339.018725785238
21
33.606789079061
0
LINE
8
LAYER2
62
2
10
336.657824614357
20
32.784508311115
11
334.296923443476
21
31.962227543168
0
LINE
8
LAYER2
62
2
10
331.936022272596
20
31.139946775222
11
329.575121101715
21
30.317666007275
0
LINE
8
LAYER2
62
2
10
327.214219930835
20
29.495385239329
11
324.853318759954
21
28.673104471382
0
LINE
8
LAYER2
62
2
10
322.492417589073
20
27.850823703436
11
320.131516418193
21
27.028542935489
0
LINE
8
LAYER2
62
2
10
317.770615247312
20
26.206262167543
11
315.409714076432
21
25.383981399596
0
LINE
8
LAYER2
62
2
10
313.048812905551
20
24.561700631650
11
310.687911734670
21
23.739419863703
0
LINE
8
LAYER2
62
2
10
308.327010563790
20
22.917139095757
11
305.966109392909
21
22.094858327810
0
LINE
8
LAYER2
62
2
10
303.605208222029
20
21.272577559864
11
301.244307051148
21
20.450296791917
0
LINE
8
LAYER2
62
2
10
298.883405880268
20
19.628016023971
11
298.225581265911
21
21.516736960675
0
LINE
8
LAYER2
62
2
10
373.774418734089
20
47.829721534964
11
374.432243348446
21
45.941000598259
0
LINE
8
LAYER3
62
3
10
377.500000000000
20
114.500000000000
11
381.500000000000
21
114.500000000000
0
LINE
8
LAYER3
62
3
10
381.500000000000
20
114.500000000000
11
381.500000000000
21
10.000000000000
0
LINE
8
LAYER3
62
3
10
381.500000000000
20
10.000000000000
11
377.500000000000
21
10.000000000000
0
LINE
8
LAYER3
62
3
10
377.500000000000
20
10.000000000000
11
377.500000000000
21
114.500000000000
0
LINE
8
LAYER3
62
3
10
10.500000000000
20
110.500000000000
11
10.500000000000
21
114.500000000000
0
LINE
8
LAYER3
62
3
10
10.500000000000
20
114.500000000000
11
381.500000000000
21
114.500000000000
0
LINE
8
LAYER3
62
3
10
381.500000000000
20
114.500000000000
11
381.500000000000
21
110.500000000000
0
LINE
8
LAYER3
62
3
10
381.500000000000
20
110.500000000000
11
10.500000000000
21
110.500000000000
0
LINE
8
LAYER3
62
3
10
14.500000000000
20
9.999992370605
11
10.500000000000
21
9.999992370605
0
LINE
8
LAYER3
62
3
10
10.500000000000
20
9.999992370605
11
10.500000000000
21
114.500000000000
0
LINE
8
LAYER3
62
3
10
10.500000000000
20
114.500000000000
11
14.500000000000
21
114.500000000000
0
LINE
8
LAYER3
62
3
10
14.500000000000
20
114.500000000000
11
14.500000000000
21
9.999992370605
0
LINE
8
LAYER3
62
3
10
290.500000000000
20
21.500000000000
11
294.500000000000
21
21.500000000000
0
LINE
8
LAYER3
62
3
10
294.500000000000
20
21.500000000000
11
294.500000000000
21
18.000000000000
0
LINE
8
LAYER3
62
3
10
294.500000000000
20
18.000000000000
11
290.500000000000
21
18.000000000000
0
LINE
8
LAYER3
62
3
10
290.500000000000
20
18.000000000000
11
290.500000000000
21
21.500000000000
0
LINE
8
LAYER3
62
3
10
103.500000000000
20
23.500000000000
11
103.500000000000
21
27.500000000000
0
LINE
8
LAYER3
62
3
10
103.500000000000
20
27.500000000000
11
288.500000000000
21
27.500000000000
0
LINE
8
LAYER3
62
3
10
288.500000000000
20
27.500000000000
11
288.500000000000
21
23.500000000000
0
LINE
8
LAYER3
62
3
10
288.500000000000
20
23.500000000000
11
103.500000000000
21
23.500000000000
0
LINE
8
LAYER3
62
3
10
101.500000000000
20
9.999992370605
11
97.500000000000
21
9.999992370605
0
LINE
8
LAYER3
62
3
10
97.500000000000
20
9.999992370605
11
97.500000000000
21
21.500000000000
0
LINE
8
LAYER3
62
3
10
97.500000000000
20
21.500000000000
11
101.500000000000
21
21.500000000000
0
LINE
8
LAYER3
62
3
10
101.500000000000
20
21.500000000000
11
101.500000000000
21
9.999992370605
0
LINE
8
LAYER4
62
4
10
288.500000000000
20
18.000000000000
11
296.500000000000
21
18.000000000000
0
LINE
8
LAYER4
62
4
10
296.500000000000
20
18.000000000000
11
296.500000000000
21
10.000000000000
0
LINE
8
LAYER4
62
4
10
296.500000000000
20
10.000000000000
11
288.500000000000
21
10.000000000000
0
LINE
8
LAYER4
62
4
10
288.500000000000
20
10.000000000000
11
288.500000000000
21
18.000000000000
0
LINE
8
LAYER4
62
4
10
288.500000000000
20
21.500000000000
11
288.500000000000
21
29.500000000000
0
LINE
8
LAYER4
62
4
10
288.500000000000
20
29.500000000000
11
296.500000000000
21
29.500000000000
0
LINE
8
LAYER4
62
4
10
296.500000000000
20
29.500000000000
11
296.500000000000
21
21.500000000000
0
LINE
8
LAYER4
62
4
10
296.500000000000
20
21.500000000000
11
288.500000000000
21
21.500000000000
0
LINE
8
LAYER4
62
4
10
103.500000000000
20
21.500000000000
11
95.500000000000
21
21.500000000000
0
LINE
8
LAYER4
62
4
10
95.500000000000
20
21.500000000000
11
95.500000000000
21
29.500000000000
0
LINE
8
LAYER4
62
4
10
95.500000000000
20
29.500000000000
11
103.500000000000
21
29.500000000000
0
LINE
8
LAYER4
62
4
10
103.500000000000
20
29.500000000000
11
103.500000000000
21
21.500000000000
0
LINE
8
LAYER5
62
5
10
374.000000000000
20
107.000000000000
11
378.000000000000
21
107.000000000000
0
LINE
8
LAYER5
62
5
10
378.000000000000
20
107.000000000000
11
378.000000000000
21
10.000000000000
0
LINE
8
LAYER5
62
5
10
378.000000000000
20
10.000000000000
11
374.000000000000
21
10.000000000000
0
LINE
8
LAYER5
62
5
10
374.000000000000
20
10.000000000000
11
374.000000000000
21
107.000000000000
0
LINE
8
LAYER5
62
5
10
13.500000000000
20
107.000000000000
11
13.500000000000
21
111.000000000000
0
LINE
8
LAYER5
62
5
10
13.500000000000
20
111.000000000000
11
378.500000000000
21
111.000000000000
0
LINE
8
LAYER5
62
5
10
378.500000000000
20
111.000000000000
11
378.500000000000
21
107.000000000000
0
LINE
8
LAYER5
62
5
10
378.500000000000
20
107.000000000000
11
13.500000000000
21
107.000000000000
0
LINE
8
LAYER5
62
5
10
18.000000000000
20
9.999992370605
11
14.000000000000
21
9.999992370605
0
LINE
8
LAYER5
62
5
10
14.000000000000
20
9.999992370605
11
14.000000000000
21
107.000000000000
0
LINE
8
LAYER5
62
5
10
14.000000000000
20
107.000000000000
11
18.000000000000
21
107.000000000000
0
LINE
8
LAYER5
62
5
10
18.000000000000
20
107.000000000000
11
18.000000000000
21
9.999992370605
0
LINE
8
LAYER5
62
5
10
290.500000000000
20
21.500000000000
11
294.500000000000
21
21.500000000000
0
LINE
8
LAYER5
62
5
10
294.500000000000
20
21.500000000000
11
294.500000000000
21
18.000000000000
0
LINE
8
LAYER5
62
5
10
294.500000000000
20
18.000000000000
11
290.500000000000
21
18.000000000000
0
LINE
8
LAYER5
62
5
10
290.500000000000
20
18.000000000000
11
290.500000000000
21
21.500000000000
0
LINE
8
LAYER5
62
5
10
103.500000000000
20
23.500000000000
11
103.500000000000
21
27.500000000000
0
LINE
8
LAYER5
62
5
10
103.500000000000
20
27.500000000000
11
288.500000000000
21
27.500000000000
0
LINE
8
LAYER5
62
5
10
288.500000000000
20
27.500000000000
11
288.500000000000
21
23.500000000000
0
LINE
8
LAYER5
62
5
10
288.500000000000
20
23.500000000000
11
103.500000000000
21
23.500000000000
0
LINE
8
LAYER6
62
6
10
279.468750000000
20
19.500000000000
11
279.468750000000
21
23.500000000000
0
LINE
8
LAYER6
62
6
10
279.468750000000
20
23.500000000000
11
276.768753051758
21
23.500000000000
0
LINE
8
LAYER6
62
6
10
276.768753051758
20
23.500000000000
11
276.768753051758
21
19.500000000000
0
LINE
8
LAYER6
62
6
10
276.768753051758
20
19.500000000000
11
279.468750000000
21
19.500000000000
0
LINE
8
LAYER6
62
6
10
267.737503051758
20
19.500000000000
11
267.737503051758
21
23.500000000000
0
LINE
8
LAYER6
62
6
10
267.737503051758
20
23.500000000000
11
265.037498474121
21
23.500000000000
0
LINE
8
LAYER6
62
6
10
265.037498474121
20
23.500000000000
11
265.037498474121
21
19.500000000000
0
LINE
8
LAYER6
62
6
10
265.037498474121
20
19.500000000000
11
267.737503051758
21
19.500000000000
0
LINE
8
LAYER6
62
6
10
256.006248474121
20
19.500000000000
11
256.006248474121
21
23.500000000000
0
LINE
8
LAYER6
62
6
10
256.006248474121
20
23.500000000000
11
253.306243896484
21
23.500000000000
0
LINE
8
LAYER6
62
6
10
253.306243896484
20
23.500000000000
11
253.306243896484
21
19.500000000000
0
LINE
8
LAYER6
62
6
10
253.306243896484
20
19.500000000000
11
256.006248474121
21
19.500000000000
0
LINE
8
LAYER6
62
6
10
244.274993896484
20
19.500000000000
11
244.274993896484
21
23.500000000000
0
LINE
8
LAYER6
62
6
10
244.274993896484
20
23.500000000000
11
241.574996948242
21
23.500000000000
0
LINE
8
LAYER6
62
6
10
241.574996948242
20
23.500000000000
11
241.574996948242
21
19.500000000000
0
LINE
8
LAYER6
62
6
10
241.574996948242
20
19.500000000000
11
244.274993896484
21
19.500000000000
0
LINE
8
LAYER6
62
6
10
232.543746948242
20
19.500000000000
11
232.543746948242
21
23.500000000000
0
LINE
8
LAYER6
62
6
10
232.543746948242
20
23.500000000000
11
229.843750000000
21
23.500000000000
0
LINE
8
LAYER6
62
6
10
229.843750000000
20
23.500000000000
11
229.843750000000
21
19.500000000000
0
LINE
8
LAYER6
62
6
10
229.843750000000
20
19.500000000000
11
232.543746948242
21
19.500000000000
0
LINE
8
LAYER6
62
6
10
220.812500000000
20
19.500000000000
11
220.812500000000
21
23.500000000000
0
LINE
8
LAYER6
62
6
10
220.812500000000
20
23.500000000000
11
218.112503051758
21
23.500000000000
0
LINE
8
LAYER6
62
6
10
218.112503051758
20
23.500000000000
11
218.112503051758
21
19.500000000000
0
LINE
8
LAYER6
62
6
10
218.112503051758
20
19.500000000000
11
220.812500000000
21
19.500000000000
0
LINE
8
LAYER6
62
6
10
209.081253051758
20
19.500000000000
11
209.081253051758
21
23.500000000000
0
LINE
8
LAYER6
62
6
10
209.081253051758
20
23.500000000000
11
206.381256103516
21
23.500000000000
0
LINE
8
LAYER6
62
6
10
206.381256103516
20
23.500000000000
11
206.381256103516
21
19.500000000000
0
LINE
8
LAYER6
62
6
10
206.381256103516
20
19.500000000000
11
209.081253051758
21
19.500000000000
0
LINE
8
LAYER6
62
6
10
197.350006103516
20
19.500000000000
11
197.350006103516
21
23.500000000000
0
LINE
8
LAYER6
62
6
10
197.350006103516
20
23.500000000000
11
194.649993896484
21
23.500000000000
0
LINE
8
LAYER6
62
6
10
194.649993896484
20
23.500000000000
11
194.649993896484
21
19.500000000000
0
LINE
8
LAYER6
62
6
10
194.649993896484
20
19.500000000000
11
197.350006103516
21
19.500000000000
0
LINE
8
LAYER6
62
6
10
185.618743896484
20
19.500000000000
11
185.618743896484
21
23.500000000000
0
LINE
8
LAYER6
62
6
10
185.618743896484
20
23.500000000000
11
182.918746948242
21
23.500000000000
0
LINE
8
LAYER6
62
6
10
182.918746948242
20
23.500000000000
11
182.918746948242
21
19.500000000000
0
LINE
8
LAYER6
62
6
10
182.918746948242
20
19.500000000000
11
185.618743896484
21
19.500000000000
0
LINE
8
LAYER6
62
6
10
173.887496948242
20
19.500000000000
11
173.887496948242
21
23.500000000000
0
LINE
8
LAYER6
62
6
10
173.887496948242
20
23.500000000000
11
171.187500000000
21
23.500000000000
0
LINE
8
LAYER6
62
6
10
171.187500000000
20
23.500000000000
11
171.187500000000
21
19.500000000000
0
LINE
8
LAYER6
62
6
10
171.187500000000
20
19.500000000000
11
173.887496948242
21
19.500000000000
0
LINE
8
LAYER6
62
6
10
162.156250000000
20
19.500000000000
11
162.156250000000
21
23.500000000000
0
LINE
8
LAYER6
62
6
10
162.156250000000
20
23.500000000000
11
159.456253051758
21
23.500000000000
0
LINE
8
LAYER6
62
6
10
159.456253051758
20
23.500000000000
11
159.456253051758
21
19.500000000000
0
LINE
8
LAYER6
62
6
10
159.456253051758
20
19.500000000000
11
162.156250000000
21
19.500000000000
0
LINE
8
LAYER6
62
6
10
150.425003051758
20
19.500000000000
11
150.425003051758
21
23.500000000000
0
LINE
8
LAYER6
62
6
10
150.425003051758
20
23.500000000000
11
147.725006103516
21
23.500000000000
0
LINE
8
LAYER6
62
6
10
147.725006103516
20
23.500000000000
11
147.725006103516
21
19.500000000000
0
LINE
8
LAYER6
62
6
10
147.725006103516
20
19.500000000000
11
150.425003051758
21
19.500000000000
0
LINE
8
LAYER6
62
6
10
138.693756103516
20
19.500000000000
11
138.693756103516
21
23.500000000000
0
LINE
8
LAYER6
62
6
10
138.693756103516
20
23.500000000000
11
135.993743896484
21
23.500000000000
0
LINE
8
LAYER6
62
6
10
135.993743896484
20
23.500000000000
11
135.993743896484
21
19.500000000000
0
LINE
8
LAYER6
62
6
10
135.993743896484
20
19.500000000000
11
138.693756103516
21
19.500000000000
0
LINE
8
LAYER6
62
6
10
126.962493896484
20
19.500000000000
11
126.962493896484
21
23.500000000000
0
LINE
8
LAYER6
62
6
10
126.962493896484
20
23.500000000000
11
124.262512207031
21
23.500000000000
0
LINE
8
LAYER6
62
6
10
124.262512207031
20
23.500000000000
11
124.262512207031
21
19.500000000000
0
LINE
8
LAYER6
62
6
10
124.262512207031
20
19.500000000000
11
126.962493896484
21
19.500000000000
0
LINE
8
LAYER6
62
6
10
115.231262207031
20
19.500000000000
11
115.231262207031
21
23.500000000000
0
LINE
8
LAYER6
62
6
10
115.231262207031
20
23.500000000000
11
112.531250000000
21
23.500000000000
0
LINE
8
LAYER6
62
6
10
112.531250000000
20
23.500000000000
11
112.531250000000
21
19.500000000000
0
LINE
8
LAYER6
62
6
10
112.531250000000
20
19.500000000000
11
115.231262207031
21
19.500000000000
0
LINE
8
LAYER7
62
7
10
382.000000000000
20
115.000000000000
11
382.000000000000
21
10.000000000000
0
LINE
8
LAYER7
62
7
10
382.000000000000
20
10.000000000000
11
10.000000000000
21
10.000000000000
0
LINE
8
LAYER7
62
7
10
10.000000000000
20
10.000000000000
11
10.000000000000
21
115.000000000000
0
LINE
8
LAYER7
62
7
10
10.000000000000
20
115.000000000000
11
382.000000000000
21
115.000000000000
0
LINE
8
LAYER9
62
8
10
55.569274902344
20
10.999992370605
11
55.569274902344
21
49.430725097656
0
ARC
8
LAYER9
62
8
10
75.569274902344
20
49.430725097656
40
20.000000000000
50
90.000000000000
51
180.000000000000
0
LINE
8
LAYER9
62
8
10
75.569274902344
20
69.430725097656
11
316.430725097656
21
69.430725097656
0
ARC
8
LAYER9
62
8
10
316.430725097656
20
49.430725097656
40
20.000000000000
50
0.000000000000
51
90.000000000000
0
LINE
8
LAYER9
62
8
10
336.430725097656
20
49.430725097656
11
336.430725097656
21
10.000000000000
0
LINE
8
LAYER14
62
8
10
40.794274902344
20
26.546156155140
11
41.131774902344
21
27.146156155140
0
LINE
8
LAYER14
62
8
10
41.131774902344
20
27.146156155140
11
41.131774902344
21
25.146156155140
0
LINE
8
LAYER14
62
8
10
40.906774902344
20
25.146156155140
11
41.356774902344
21
25.146156155140
0
LINE
8
LAYER14
62
8
10
40.598113463954
20
52.551241781864
11
40.766863463954
21
52.851241781864
0
LINE
8
LAYER14
62
8
10
40.766863463954
20
52.851241781864
11
41.554363463954
21
52.851241781864
0
LINE
8
LAYER14
62
8
10
41.554363463954
20
52.851241781864
11
41.723113463954
21
52.551241781864
0
LINE
8
LAYER14
62
8
10
41.723113463954
20
52.551241781864
11
41.723113463954
21
52.251241781864
0
LINE
8
LAYER14
62
8
10
41.723113463954
20
52.251241781864
11
40.598113463954
21
51.151241781864
0
LINE
8
LAYER14
62
8
10
40.598113463954
20
51.151241781864
11
40.598113463954
21
50.851241781864
0
LINE
8
LAYER14
62
8
10
40.598113463954
20
50.851241781864
11
41.723113463954
21
50.851241781864
0
LINE
8
LAYER14
62
8
10
41.723113463954
20
50.851241781864
11
41.723113463954
21
51.151241781864
0
LINE
8
LAYER14
62
8
10
67.614710501832
20
85.314810903177
11
67.727210501832
21
85.514810903177
0
LINE
8
LAYER14
62
8
10
67.727210501832
20
85.514810903177
11
68.627210501832
21
85.514810903177
0
LINE
8
LAYER14
62
8
10
68.627210501832
20
85.514810903177
11
68.739710501832
21
85.314810903177
0
LINE
8
LAYER14
62
8
10
68.739710501832
20
85.314810903177
11
68.739710501832
21
84.914810903177
0
LINE
8
LAYER14
62
8
10
68.739710501832
20
84.914810903177
11
68.627210501832
21
84.714810903177
0
LINE
8
LAYER14
62
8
10
68.627210501832
20
84.714810903177
11
67.952210501832
21
84.714810903177
0
LINE
8
LAYER14
62
8
10
68.627210501832
20
84.714810903177
11
68.739710501832
21
84.514810903177
0
LINE
8
LAYER14
62
8
10
68.739710501832
20
84.514810903177
11
68.739710501832
21
83.714810903177
0
LINE
8
LAYER14
62
8
10
68.739710501832
20
83.714810903177
11
68.627210501832
21
83.514810903177
0
LINE
8
LAYER14
62
8
10
68.627210501832
20
83.514810903177
11
67.727210501832
21
83.514810903177
0
LINE
8
LAYER14
62
8
10
67.727210501832
20
83.514810903177
11
67.614710501832
21
83.714810903177
0
LINE
8
LAYER14
62
8
10
96.527267378088
20
86.430725097656
11
96.527267378088
21
85.630725097656
0
LINE
8
LAYER14
62
8
10
96.527267378088
20
85.630725097656
11
97.652267378088
21
85.630725097656
0
LINE
8
LAYER14
62
8
10
97.652267378088
20
86.430725097656
11
97.652267378088
21
84.430725097656
0
LINE
8
LAYER14
62
8
10
122.652267378088
20
86.430725097656
11
121.527267378088
21
86.430725097656
0
LINE
8
LAYER14
62
8
10
121.527267378088
20
86.430725097656
11
121.527267378088
21
85.630725097656
0
LINE
8
LAYER14
62
8
10
121.527267378088
20
85.630725097656
11
122.483517378088
21
85.630725097656
0
LINE
8
LAYER14
62
8
10
122.483517378088
20
85.630725097656
11
122.652267378088
21
85.330725097656
0
LINE
8
LAYER14
62
8
10
122.652267378088
20
85.330725097656
11
122.652267378088
21
84.730725097656
0
LINE
8
LAYER14
62
8
10
122.652267378088
20
84.730725097656
11
122.483517378088
21
84.430725097656
0
LINE
8
LAYER14
62
8
10
122.483517378088
20
84.430725097656
11
121.696017378088
21
84.430725097656
0
LINE
8
LAYER14
62
8
10
121.696017378088
20
84.430725097656
11
121.527267378088
21
84.730725097656
0
LINE
8
LAYER14
62
8
10
147.652267378088
20
86.430725097656
11
147.483517378088
21
86.430725097656
0
LINE
8
LAYER14
62
8
10
147.483517378088
20
86.430725097656
11
146.527267378088
21
85.930725097656
0
LINE
8
LAYER14
62
8
10
146.527267378088
20
85.930725097656
11
146.527267378088
21
84.730725097656
0
LINE
8
LAYER14
62
8
10
146.527267378088
20
84.730725097656
11
146.696017378088
21
84.430725097656
0
LINE
8
LAYER14
62
8
10
146.696017378088
20
84.430725097656
11
147.483517378088
21
84.430725097656
0
LINE
8
LAYER14
62
8
10
147.483517378088
20
84.430725097656
11
147.652267378088
21
84.730725097656
0
LINE
8
LAYER14
62
8
10
147.652267378088
20
84.730725097656
11
147.652267378088
21
85.330725097656
0
LINE
8
LAYER14
62
8
10
147.652267378088
20
85.330725097656
11
147.483517378088
21
85.630725097656
0
LINE
8
LAYER14
62
8
10
147.483517378088
20
85.630725097656
11
146.527267378088
21
85.630725097656
0
LINE
8
LAYER14
62
8
10
171.527267378088
20
86.130725097656
11
171.527267378088
21
86.430725097656
0
LINE
8
LAYER14
62
8
10
171.527267378088
20
86.430725097656
11
172.652267378088
21
86.430725097656
0
LINE
8
LAYER14
62
8
10
172.652267378088
20
86.430725097656
11
172.652267378088
21
85.730725097656
0
LINE
8
LAYER14
62
8
10
172.652267378088
20
85.730725097656
11
172.089767378088
21
85.230725097656
0
LINE
8
LAYER14
62
8
10
172.089767378088
20
85.230725097656
11
172.089767378088
21
84.430725097656
0
LINE
8
LAYER14
62
8
10
196.696017378088
20
84.430725097656
11
196.527267378088
21
84.730725097656
0
LINE
8
LAYER14
62
8
10
196.527267378088
20
84.730725097656
11
196.527267378088
21
85.130725097656
0
LINE
8
LAYER14
62
8
10
196.527267378088
20
85.130725097656
11
196.696017378088
21
85.430725097656
0
LINE
8
LAYER14
62
8
10
196.696017378088
20
85.430725097656
11
197.483517378088
21
85.430725097656
0
LINE
8
LAYER14
62
8
10
197.483517378088
20
85.430725097656
11
197.652267378088
21
85.130725097656
0
LINE
8
LAYER14
62
8
10
197.652267378088
20
85.130725097656
11
197.652267378088
21
84.730725097656
0
LINE
8
LAYER14
62
8
10
197.652267378088
20
84.730725097656
11
197.483517378088
21
84.430725097656
0
LINE
8
LAYER14
62
8
10
197.483517378088
20
84.430725097656
11
196.696017378088
21
84.430725097656
0
LINE
8
LAYER14
62
8
10
196.696017378088
20
85.430725097656
11
196.527267378088
21
85.730725097656
0
LINE
8
LAYER14
62
8
10
196.527267378088
20
85.730725097656
11
196.527267378088
21
86.130725097656
0
LINE
8
LAYER14
62
8
10
196.527267378088
20
86.130725097656
11
196.696017378088
21
86.430725097656
0
LINE
8
LAYER14
62
8
10
196.696017378088
20
86.430725097656
11
197.483517378088
21
86.430725097656
0
LINE
8
LAYER14
62
8
10
197.483517378088
20
86.430725097656
11
197.652267378088
21
86.130725097656
0
LINE
8
LAYER14
62
8
10
197.652267378088
20
86.130725097656
11
197.652267378088
21
85.730725097656
0
LINE
8
LAYER14
62
8
10
197.652267378088
20
85.730725097656
11
197.483517378088
21
85.430725097656
0
LINE
8
LAYER14
62
8
10
221.527267378088
20
84.730725097656
11
221.696017378088
21
84.430725097656
0
LINE
8
LAYER14
62
8
10
221.696017378088
20
84.430725097656
11
222.483517378088
21
84.430725097656
0
LINE
8
LAYER14
62
8
10
222.483517378088
20
84.430725097656
11
222.652267378088
21
84.730725097656
0
LINE
8
LAYER14
62
8
10
222.652267378088
20
84.730725097656
11
222.652267378088
21
86.130725097656
0
LINE
8
LAYER14
62
8
10
222.652267378088
20
86.130725097656
11
222.483517378088
21
86.430725097656
0
LINE
8
LAYER14
62
8
10
222.483517378088
20
86.430725097656
11
221.696017378088
21
86.430725097656
0
LINE
8
LAYER14
62
8
10
221.696017378088
20
86.430725097656
11
221.527267378088
21
86.130725097656
0
LINE
8
LAYER14
62
8
10
221.527267378088
20
86.130725097656
11
221.527267378088
21
85.730725097656
0
LINE
8
LAYER14
62
8
10
221.527267378088
20
85.730725097656
11
221.696017378088
21
85.430725097656
0
LINE
8
LAYER14
62
8
10
221.696017378088
20
85.430725097656
11
222.652267378088
21
85.430725097656
0
LINE
8
LAYER14
62
8
10
246.752267378088
20
85.830725097656
11
247.089767378088
21
86.430725097656
0
LINE
8
LAYER14
62
8
10
247.089767378088
20
86.430725097656
11
247.089767378088
21
84.430725097656
0
LINE
8
LAYER14
62
8
10
246.864767378088
20
84.430725097656
11
247.314767378088
21
84.430725097656
0
LINE
8
LAYER14
62
8
10
248.308517378088
20
84.430725097656
11
248.871017378088
21
84.430725097656
0
LINE
8
LAYER14
62
8
10
248.871017378088
20
84.430725097656
11
249.152267378088
21
84.930725097656
0
LINE
8
LAYER14
62
8
10
249.152267378088
20
84.930725097656
11
249.152267378088
21
85.930725097656
0
LINE
8
LAYER14
62
8
10
249.152267378088
20
85.930725097656
11
248.871017378088
21
86.430725097656
0
LINE
8
LAYER14
62
8
10
248.871017378088
20
86.430725097656
11
248.308517378088
21
86.430725097656
0
LINE
8
LAYER14
62
8
10
248.308517378088
20
86.430725097656
11
248.027267378088
21
85.930725097656
0
LINE
8
LAYER14
62
8
10
248.027267378088
20
85.930725097656
11
248.027267378088
21
84.930725097656
0
LINE
8
LAYER14
62
8
10
248.027267378088
20
84.930725097656
11
248.308517378088
21
84.430725097656
0
LINE
8
LAYER14
62
8
10
271.752267378088
20
85.830725097656
11
272.089767378088
21
86.430725097656
0
LINE
8
LAYER14
62
8
10
272.089767378088
20
86.430725097656
11
272.089767378088
21
84.430725097656
0
LINE
8
LAYER14
62
8
10
271.864767378088
20
84.430725097656
11
272.314767378088
21
84.430725097656
0
LINE
8
LAYER14
62
8
10
273.252267378088
20
85.830725097656
11
273.589767378088
21
86.430725097656
0
LINE
8
LAYER14
62
8
10
273.589767378088
20
86.430725097656
11
273.589767378088
21
84.430725097656
0
LINE
8
LAYER14
62
8
10
273.364767378088
20
84.430725097656
11
273.814767378088
21
84.430725097656
0
LINE
8
LAYER14
62
8
10
296.897978031134
20
85.830725097656
11
297.235478031134
21
86.430725097656
0
LINE
8
LAYER14
62
8
10
297.235478031134
20
86.430725097656
11
297.235478031134
21
84.430725097656
0
LINE
8
LAYER14
62
8
10
297.010478031134
20
84.430725097656
11
297.460478031134
21
84.430725097656
0
LINE
8
LAYER14
62
8
10
298.172978031134
20
86.130725097656
11
298.341728031134
21
86.430725097656
0
LINE
8
LAYER14
62
8
10
298.341728031134
20
86.430725097656
11
299.129228031134
21
86.430725097656
0
LINE
8
LAYER14
62
8
10
299.129228031134
20
86.430725097656
11
299.297978031134
21
86.130725097656
0
LINE
8
LAYER14
62
8
10
299.297978031134
20
86.130725097656
11
299.297978031134
21
85.830725097656
0
LINE
8
LAYER14
62
8
10
299.297978031134
20
85.830725097656
11
298.172978031134
21
84.730725097656
0
LINE
8
LAYER14
62
8
10
298.172978031134
20
84.730725097656
11
298.172978031134
21
84.430725097656
0
LINE
8
LAYER14
62
8
10
298.172978031134
20
84.430725097656
11
299.297978031134
21
84.430725097656
0
LINE
8
LAYER14
62
8
10
299.297978031134
20
84.430725097656
11
299.297978031134
21
84.730725097656
0
LINE
8
LAYER14
62
8
10
326.388677116879
20
84.450208213723
11
326.726177116879
21
85.050208213723
0
LINE
8
LAYER14
62
8
10
326.726177116879
20
85.050208213723
11
326.726177116879
21
83.050208213723
0
LINE
8
LAYER14
62
8
10
326.501177116879
20
83.050208213723
11
326.951177116879
21
83.050208213723
0
LINE
8
LAYER14
62
8
10
327.663677116879
20
84.850208213723
11
327.776177116879
21
85.050208213723
0
LINE
8
LAYER14
62
8
10
327.776177116879
20
85.050208213723
11
328.676177116879
21
85.050208213723
0
LINE
8
LAYER14
62
8
10
328.676177116879
20
85.050208213723
11
328.788677116879
21
84.850208213723
0
LINE
8
LAYER14
62
8
10
328.788677116879
20
84.850208213723
11
328.788677116879
21
84.450208213723
0
LINE
8
LAYER14
62
8
10
328.788677116879
20
84.450208213723
11
328.676177116879
21
84.250208213723
0
LINE
8
LAYER14
62
8
10
328.676177116879
20
84.250208213723
11
328.001177116879
21
84.250208213723
0
LINE
8
LAYER14
62
8
10
328.676177116879
20
84.250208213723
11
328.788677116879
21
84.050208213723
0
LINE
8
LAYER14
62
8
10
328.788677116879
20
84.050208213723
11
328.788677116879
21
83.250208213723
0
LINE
8
LAYER14
62
8
10
328.788677116879
20
83.250208213723
11
328.676177116879
21
83.050208213723
0
LINE
8
LAYER14
62
8
10
328.676177116879
20
83.050208213723
11
327.776177116879
21
83.050208213723
0
LINE
8
LAYER14
62
8
10
327.776177116879
20
83.050208213723
11
327.663677116879
21
83.250208213723
0
LINE
8
LAYER14
62
8
10
351.655725097656
20
50.661411893581
11
351.993225097656
21
51.261411893581
0
LINE
8
LAYER14
62
8
10
351.993225097656
20
51.261411893581
11
351.993225097656
21
49.261411893581
0
LINE
8
LAYER14
62
8
10
351.768225097656
20
49.261411893581
11
352.218225097656
21
49.261411893581
0
LINE
8
LAYER14
62
8
10
352.930725097656
20
51.261411893581
11
352.930725097656
21
50.461411893581
0
LINE
8
LAYER14
62
8
10
352.930725097656
20
50.461411893581
11
354.055725097656
21
50.461411893581
0
LINE
8
LAYER14
62
8
10
354.055725097656
20
51.261411893581
11
354.055725097656
21
49.261411893581
0
LINE
8
LAYER14
62
8
10
351.655725097656
20
25.400000000000
11
351.993225097656
21
26.000000000000
0
LINE
8
LAYER14
62
8
10
351.993225097656
20
26.000000000000
11
351.993225097656
21
24.000000000000
0
LINE
8
LAYER14
62
8
10
351.768225097656
20
24.000000000000
11
352.218225097656
21
24.000000000000
0
LINE
8
LAYER14
62
8
10
354.055725097656
20
26.000000000000
11
352.930725097656
21
26.000000000000
0
LINE
8
LAYER14
62
8
10
352.930725097656
20
26.000000000000
11
352.930725097656
21
25.200000000000
0
LINE
8
LAYER14
62
8
10
352.930725097656
20
25.200000000000
11
353.886975097656
21
25.200000000000
0
LINE
8
LAYER14
62
8
10
353.886975097656
20
25.200000000000
11
354.055725097656
21
24.900000000000
0
LINE
8
LAYER14
62
8
10
354.055725097656
20
24.900000000000
11
354.055725097656
21
24.300000000000
0
LINE
8
LAYER14
62
8
10
354.055725097656
20
24.300000000000
11
353.886975097656
21
24.000000000000
0
LINE
8
LAYER14
62
8
10
353.886975097656
20
24.000000000000
11
353.099475097656
21
24.000000000000
0
LINE
8
LAYER14
62
8
10
353.099475097656
20
24.000000000000
11
352.930725097656
21
24.300000000000
0
LINE
8
LAYER15
62
8
10
10.000000000000
20
0.000000000000
11
10.000000000000
21
115.000000000000
0
LINE
8
LAYER15
62
8
10
10.000000000000
20
115.000000000000
11
0.000000000000
21
125.000000000000
0
LINE
8
LAYER15
62
8
10
0.000000000000
20
125.000000000000
11
0.000000000000
21
0.000000000000
0
LINE
8
LAYER15
62
8
10
0.000000000000
20
0.000000000000
11
10.000000000000
21
0.000000000000
0
LINE
8
LAYER15
62
8
10
10.000000000000
20
115.000000000000
11
382.000000000000
21
115.000000000000
0
LINE
8
LAYER15
62
8
10
382.000000000000
20
115.000000000000
11
392.000000000000
21
125.000000000000
0
LINE
8
LAYER15
62
8
10
392.000000000000
20
125.000000000000
11
0.000000000000
21
125.000000000000
0
LINE
8
LAYER15
62
8
10
0.000000000000
20
125.000000000000
11
10.000000000000
21
115.000000000000
0
LINE
8
LAYER15
62
8
10
382.000000000000
20
115.000000000000
11
382.000000000000
21
10.000000000000
0
LINE
8
LAYER15
62
8
10
382.000000000000
20
10.000000000000
11
392.000000000000
21
10.000000000000
0
LINE
8
LAYER15
62
8
10
392.000000000000
20
10.000000000000
11
392.000000000000
21
125.000000000000
0
LINE
8
LAYER15
62
8
10
392.000000000000
20
125.000000000000
11
382.000000000000
21
115.000000000000
0
ENDSEC
0
EOF
