0
SECTION
2
HEADER
0
ENDSEC
0
SECTION
2
TABLES
0
TABLE
2
LTYPE
70
1
0
LTYPE
2
CONTINUOUS
70
64
3
Solid line
72
65
73
0
40
0
0
ENDTAB
0
TABLE
2
LAYER
70
20
0
LAYER
2
COMPASS
70
0
62
1
6
CONTINUOUS
0
LAYER
2
LAYER1
70
0
62
1
6
CONTINUOUS
0
LAYER
2
LAYER2
70
0
62
1
6
CONTINUOUS
0
LAYER
2
LAYER3
70
0
62
1
6
CONTINUOUS
0
LAYER
2
LAYER4
70
0
62
1
6
CONTINUOUS
0
LAYER
2
LAYER5
70
0
62
1
6
CONTINUOUS
0
LAYER
2
LAYER6
70
0
62
1
6
CONTINUOUS
0
LAYER
2
LAYER7
70
0
62
1
6
CONTINUOUS
0
LAYER
2
LAYER8
70
0
62
1
6
CONTINUOUS
0
LAYER
2
LAYER9
70
0
62
1
6
CONTINUOUS
0
LAYER
2
LAYER10
70
0
62
1
6
CONTINUOUS
0
LAYER
2
LAYER11
70
0
62
1
6
CONTINUOUS
0
LAYER
2
LAYER12
70
0
62
1
6
CONTINUOUS
0
LAYER
2
LAYER13
70
0
62
1
6
CONTINUOUS
0
LAYER
2
LAYER14
70
0
62
1
6
CONTINUOUS
0
LAYER
2
LAYER15
70
0
62
1
6
CONTINUOUS
0
LAYER
2
LAYER16
70
0
62
1
6
CONTINUOUS
0
LAYER
2
LAYER17
70
0
62
1
6
CONTINUOUS
0
LAYER
2
LAYER18
70
0
62
1
6
CONTINUOUS
0
LAYER
2
LAYER19
70
0
62
1
6
CONTINUOUS
0
ENDTAB
0
ENDSEC
0
SECTION
2
BLOCKS
0
ENDSEC
0
SECTION
2
ENTITIES
0
LINE
8
LAYER1
62
1
10
97.500000000000
20
10.999992642593
11
14.500000000000
21
10.999992642593
0
LINE
8
LAYER1
62
1
10
95.500000000000
20
23.654421412925
11
95.500000000000
21
21.500000000000
0
LINE
8
LAYER1
62
1
10
95.500000000000
20
21.500000000000
11
97.500000000000
21
21.500000000000
0
LINE
8
LAYER1
62
1
10
97.500000000000
20
21.500000000000
11
97.500000000000
21
10.999992642593
0
LINE
8
LAYER1
62
1
10
14.500000000000
20
10.999992642593
11
14.500000000000
21
55.229127040044
0
LINE
8
LAYER1
62
1
10
14.500000000000
20
55.229127040044
11
95.500000000000
21
23.654421412925
0
LINE
8
LAYER1
62
1
10
97.500000000000
20
19.654927189628
11
14.500000000000
21
52.009255177910
0
LINE
8
LAYER1
62
1
10
95.500000000000
20
29.018276698670
11
95.500000000000
21
21.500000000000
0
LINE
8
LAYER1
62
1
10
95.500000000000
20
21.500000000000
11
97.500000000000
21
21.500000000000
0
LINE
8
LAYER1
62
1
10
97.500000000000
20
21.500000000000
11
97.500000000000
21
19.654927189628
0
LINE
8
LAYER1
62
1
10
14.500000000000
20
52.009255177910
11
14.500000000000
21
108.975456186168
0
LINE
8
LAYER1
62
1
10
14.500000000000
20
108.975456186168
11
95.500000000000
21
29.018276698670
0
LINE
8
LAYER1
62
1
10
95.500000000000
20
24.802858114109
11
14.500000000000
21
104.760037601606
0
LINE
8
LAYER1
62
1
10
102.501559887300
20
29.500000000000
11
95.500000000000
21
29.500000000000
0
LINE
8
LAYER1
62
1
10
95.500000000000
20
29.500000000000
11
95.500000000000
21
24.802858114109
0
LINE
8
LAYER1
62
1
10
14.500000000000
20
104.760037601606
11
14.500000000000
21
110.500000000000
0
LINE
8
LAYER1
62
1
10
14.500000000000
20
110.500000000000
11
68.581050670816
21
110.500000000000
0
LINE
8
LAYER1
62
1
10
68.581050670816
20
110.500000000000
11
102.501559887300
21
29.500000000000
0
LINE
8
LAYER1
62
1
10
99.249125757050
20
29.500000000000
11
65.328616540566
21
110.500000000000
0
LINE
8
LAYER1
62
1
10
110.527267378088
20
27.500000000000
11
103.500000000000
21
27.500000000000
0
LINE
8
LAYER1
62
1
10
103.500000000000
20
27.500000000000
11
103.500000000000
21
29.500000000000
0
LINE
8
LAYER1
62
1
10
103.500000000000
20
29.500000000000
11
99.249125757050
21
29.500000000000
0
LINE
8
LAYER1
62
1
10
65.328616540566
20
110.500000000000
11
110.527267378088
21
110.500000000000
0
LINE
8
LAYER1
62
1
10
110.527267378088
20
110.500000000000
11
110.527267378088
21
27.500000000000
0
LINE
8
LAYER1
62
1
10
107.527267378088
20
27.500000000000
11
107.527267378088
21
110.500000000000
0
LINE
8
LAYER1
62
1
10
135.527267378088
20
27.500000000000
11
107.527267378088
21
27.500000000000
0
LINE
8
LAYER1
62
1
10
107.527267378088
20
110.500000000000
11
135.527267378088
21
110.500000000000
0
LINE
8
LAYER1
62
1
10
135.527267378088
20
110.500000000000
11
135.527267378088
21
27.500000000000
0
LINE
8
LAYER1
62
1
10
132.527267378088
20
27.500000000000
11
132.527267378088
21
110.500000000000
0
LINE
8
LAYER1
62
1
10
160.527267378088
20
27.500000000000
11
132.527267378088
21
27.500000000000
0
LINE
8
LAYER1
62
1
10
132.527267378088
20
110.500000000000
11
160.527267378088
21
110.500000000000
0
LINE
8
LAYER1
62
1
10
160.527267378088
20
110.500000000000
11
160.527267378088
21
27.500000000000
0
LINE
8
LAYER1
62
1
10
157.527267378088
20
27.500000000000
11
157.527267378088
21
110.500000000000
0
LINE
8
LAYER1
62
1
10
185.527267378088
20
27.500000000000
11
157.527267378088
21
27.500000000000
0
LINE
8
LAYER1
62
1
10
157.527267378088
20
110.500000000000
11
185.527267378088
21
110.500000000000
0
LINE
8
LAYER1
62
1
10
185.527267378088
20
110.500000000000
11
185.527267378088
21
27.500000000000
0
LINE
8
LAYER1
62
1
10
182.527267378088
20
27.500000000000
11
182.527267378088
21
110.500000000000
0
LINE
8
LAYER1
62
1
10
210.527267378088
20
27.500000000000
11
182.527267378088
21
27.500000000000
0
LINE
8
LAYER1
62
1
10
182.527267378088
20
110.500000000000
11
210.527267378088
21
110.500000000000
0
LINE
8
LAYER1
62
1
10
210.527267378088
20
110.500000000000
11
210.527267378088
21
27.500000000000
0
LINE
8
LAYER1
62
1
10
207.527267378088
20
27.500000000000
11
207.527267378088
21
110.500000000000
0
LINE
8
LAYER1
62
1
10
235.527267378088
20
27.500000000000
11
207.527267378088
21
27.500000000000
0
LINE
8
LAYER1
62
1
10
207.527267378088
20
110.500000000000
11
235.527267378088
21
110.500000000000
0
LINE
8
LAYER1
62
1
10
235.527267378088
20
110.500000000000
11
235.527267378088
21
27.500000000000
0
LINE
8
LAYER1
62
1
10
232.527267378088
20
27.500000000000
11
232.527267378088
21
110.500000000000
0
LINE
8
LAYER1
62
1
10
260.527267378088
20
27.500000000000
11
232.527267378088
21
27.500000000000
0
LINE
8
LAYER1
62
1
10
232.527267378088
20
110.500000000000
11
260.527267378088
21
110.500000000000
0
LINE
8
LAYER1
62
1
10
260.527267378088
20
110.500000000000
11
260.527267378088
21
27.500000000000
0
LINE
8
LAYER1
62
1
10
257.527267378088
20
27.500000000000
11
257.527267378088
21
110.500000000000
0
LINE
8
LAYER1
62
1
10
285.527267378088
20
27.500000000000
11
257.527267378088
21
27.500000000000
0
LINE
8
LAYER1
62
1
10
257.527267378088
20
110.500000000000
11
285.527267378088
21
110.500000000000
0
LINE
8
LAYER1
62
1
10
285.527267378088
20
110.500000000000
11
285.527267378088
21
27.500000000000
0
LINE
8
LAYER1
62
1
10
282.527267378088
20
27.500000000000
11
282.527267378088
21
110.500000000000
0
LINE
8
LAYER1
62
1
10
292.795942091926
20
29.500000000000
11
288.500000000000
21
29.500000000000
0
LINE
8
LAYER1
62
1
10
288.500000000000
20
29.500000000000
11
288.500000000000
21
27.500000000000
0
LINE
8
LAYER1
62
1
10
288.500000000000
20
27.500000000000
11
282.527267378088
21
27.500000000000
0
LINE
8
LAYER1
62
1
10
282.527267378088
20
110.500000000000
11
329.355320124816
21
110.500000000000
0
LINE
8
LAYER1
62
1
10
329.355320124816
20
110.500000000000
11
292.795942091926
21
29.500000000000
0
LINE
8
LAYER1
62
1
10
289.504520785833
20
29.500000000000
11
326.063898818724
21
110.500000000000
0
LINE
8
LAYER1
62
1
10
296.500000000000
20
24.762406814572
11
296.500000000000
21
29.500000000000
0
LINE
8
LAYER1
62
1
10
296.500000000000
20
29.500000000000
11
289.504520785833
21
29.500000000000
0
LINE
8
LAYER1
62
1
10
326.063898818724
20
110.500000000000
11
377.500000000000
21
110.500000000000
0
LINE
8
LAYER1
62
1
10
377.500000000000
20
110.500000000000
11
377.500000000000
21
102.408103102717
0
LINE
8
LAYER1
62
1
10
377.500000000000
20
102.408103102717
11
296.500000000000
21
24.762406814572
0
LINE
8
LAYER1
62
1
10
296.500000000000
20
28.918129751729
11
377.500000000000
21
106.563826039874
0
LINE
8
LAYER1
62
1
10
294.500000000000
20
20.335521839126
11
294.500000000000
21
21.500000000000
0
LINE
8
LAYER1
62
1
10
294.500000000000
20
21.500000000000
11
296.500000000000
21
21.500000000000
0
LINE
8
LAYER1
62
1
10
296.500000000000
20
21.500000000000
11
296.500000000000
21
28.918129751729
0
LINE
8
LAYER1
62
1
10
377.500000000000
20
106.563826039874
11
377.500000000000
21
49.018605626616
0
LINE
8
LAYER1
62
1
10
377.500000000000
20
49.018605626616
11
294.500000000000
21
20.335521839126
0
LINE
8
LAYER1
62
1
10
296.500000000000
20
24.200767064201
11
377.500000000000
21
52.192692206209
0
LINE
8
LAYER1
62
1
10
296.500000000000
20
10.000000000000
11
296.500000000000
21
18.000000000000
0
LINE
8
LAYER1
62
1
10
296.500000000000
20
18.000000000000
11
294.500000000000
21
18.000000000000
0
LINE
8
LAYER1
62
1
10
294.500000000000
20
18.000000000000
11
294.500000000000
21
21.500000000000
0
LINE
8
LAYER1
62
1
10
294.500000000000
20
21.500000000000
11
296.500000000000
21
21.500000000000
0
LINE
8
LAYER1
62
1
10
296.500000000000
20
21.500000000000
11
296.500000000000
21
24.200767064201
0
LINE
8
LAYER1
62
1
10
377.500000000000
20
52.192692206209
11
377.500000000000
21
10.000000000000
0
LINE
8
LAYER1
62
1
10
377.500000000000
20
10.000000000000
11
375.000000000000
21
10.000000000000
0
LINE
8
LAYER1
62
1
10
372.500000000000
20
10.000000000000
11
370.000000000000
21
10.000000000000
0
LINE
8
LAYER1
62
1
10
367.500000000000
20
10.000000000000
11
365.000000000000
21
10.000000000000
0
LINE
8
LAYER1
62
1
10
362.500000000000
20
10.000000000000
11
360.000000000000
21
10.000000000000
0
LINE
8
LAYER1
62
1
10
357.500000000000
20
10.000000000000
11
355.000000000000
21
10.000000000000
0
LINE
8
LAYER1
62
1
10
352.500000000000
20
10.000000000000
11
350.000000000000
21
10.000000000000
0
LINE
8
LAYER1
62
1
10
347.500000000000
20
10.000000000000
11
345.000000000000
21
10.000000000000
0
LINE
8
LAYER1
62
1
10
342.500000000000
20
10.000000000000
11
340.000000000000
21
10.000000000000
0
LINE
8
LAYER1
62
1
10
337.500000000000
20
10.000000000000
11
335.000000000000
21
10.000000000000
0
LINE
8
LAYER1
62
1
10
332.500000000000
20
10.000000000000
11
330.000000000000
21
10.000000000000
0
LINE
8
LAYER1
62
1
10
327.500000000000
20
10.000000000000
11
325.000000000000
21
10.000000000000
0
LINE
8
LAYER1
62
1
10
322.500000000000
20
10.000000000000
11
320.000000000000
21
10.000000000000
0
LINE
8
LAYER1
62
1
10
317.500000000000
20
10.000000000000
11
315.000000000000
21
10.000000000000
0
LINE
8
LAYER1
62
1
10
312.500000000000
20
10.000000000000
11
310.000000000000
21
10.000000000000
0
LINE
8
LAYER1
62
1
10
307.500000000000
20
10.000000000000
11
305.000000000000
21
10.000000000000
0
LINE
8
LAYER1
62
1
10
302.500000000000
20
10.000000000000
11
300.000000000000
21
10.000000000000
0
LINE
8
LAYER1
62
1
10
297.500000000000
20
10.000000000000
11
296.500000000000
21
10.000000000000
0
LINE
8
LAYER2
62
2
10
93.500000000000
20
13.999992642593
11
91.000000000000
21
13.999992642593
0
LINE
8
LAYER2
62
2
10
88.500000000000
20
13.999992642593
11
86.000000000000
21
13.999992642593
0
LINE
8
LAYER2
62
2
10
83.500000000000
20
13.999992642593
11
81.000000000000
21
13.999992642593
0
LINE
8
LAYER2
62
2
10
78.500000000000
20
13.999992642593
11
76.000000000000
21
13.999992642593
0
LINE
8
LAYER2
62
2
10
73.500000000000
20
13.999992642593
11
71.000000000000
21
13.999992642593
0
LINE
8
LAYER2
62
2
10
68.500000000000
20
13.999992642593
11
66.000000000000
21
13.999992642593
0
LINE
8
LAYER2
62
2
10
63.500000000000
20
13.999992642593
11
61.000000000000
21
13.999992642593
0
LINE
8
LAYER2
62
2
10
58.500000000000
20
13.999992642593
11
56.000000000000
21
13.999992642593
0
LINE
8
LAYER2
62
2
10
53.500000000000
20
13.999992642593
11
51.000000000000
21
13.999992642593
0
LINE
8
LAYER2
62
2
10
48.500000000000
20
13.999992642593
11
46.000000000000
21
13.999992642593
0
LINE
8
LAYER2
62
2
10
43.500000000000
20
13.999992642593
11
41.000000000000
21
13.999992642593
0
LINE
8
LAYER2
62
2
10
38.500000000000
20
13.999992642593
11
36.000000000000
21
13.999992642593
0
LINE
8
LAYER2
62
2
10
33.500000000000
20
13.999992642593
11
31.000000000000
21
13.999992642593
0
LINE
8
LAYER2
62
2
10
28.500000000000
20
13.999992642593
11
26.000000000000
21
13.999992642593
0
LINE
8
LAYER2
62
2
10
23.500000000000
20
13.999992642593
11
21.000000000000
21
13.999992642593
0
LINE
8
LAYER2
62
2
10
18.500000000000
20
15.999992642593
11
21.000000000000
21
15.999992642593
0
LINE
8
LAYER2
62
2
10
23.500000000000
20
15.999992642593
11
26.000000000000
21
15.999992642593
0
LINE
8
LAYER2
62
2
10
28.500000000000
20
15.999992642593
11
31.000000000000
21
15.999992642593
0
LINE
8
LAYER2
62
2
10
33.500000000000
20
15.999992642593
11
36.000000000000
21
15.999992642593
0
LINE
8
LAYER2
62
2
10
38.500000000000
20
15.999992642593
11
41.000000000000
21
15.999992642593
0
LINE
8
LAYER2
62
2
10
43.500000000000
20
15.999992642593
11
46.000000000000
21
15.999992642593
0
LINE
8
LAYER2
62
2
10
48.500000000000
20
15.999992642593
11
51.000000000000
21
15.999992642593
0
LINE
8
LAYER2
62
2
10
53.500000000000
20
15.999992642593
11
56.000000000000
21
15.999992642593
0
LINE
8
LAYER2
62
2
10
58.500000000000
20
15.999992642593
11
61.000000000000
21
15.999992642593
0
LINE
8
LAYER2
62
2
10
63.500000000000
20
15.999992642593
11
66.000000000000
21
15.999992642593
0
LINE
8
LAYER2
62
2
10
68.500000000000
20
15.999992642593
11
71.000000000000
21
15.999992642593
0
LINE
8
LAYER2
62
2
10
73.500000000000
20
15.999992642593
11
76.000000000000
21
15.999992642593
0
LINE
8
LAYER2
62
2
10
78.500000000000
20
15.999992642593
11
81.000000000000
21
15.999992642593
0
LINE
8
LAYER2
62
2
10
83.500000000000
20
15.999992642593
11
86.000000000000
21
15.999992642593
0
LINE
8
LAYER2
62
2
10
88.500000000000
20
15.999992642593
11
91.000000000000
21
15.999992642593
0
LINE
8
LAYER2
62
2
10
93.500000000000
20
15.999992642593
11
93.500000000000
21
13.999992642593
0
LINE
8
LAYER2
62
2
10
18.500000000000
20
13.999992642593
11
18.500000000000
21
15.999992642593
0
LINE
8
LAYER2
62
2
10
93.268563824304
20
24.524260182966
11
90.939278585285
21
25.432241611899
0
LINE
8
LAYER2
62
2
10
88.609993346266
20
26.340223040833
11
86.280708107247
21
27.248204469766
0
LINE
8
LAYER2
62
2
10
83.951422868228
20
28.156185898700
11
81.622137629209
21
29.064167327634
0
LINE
8
LAYER2
62
2
10
79.292852390190
20
29.972148756567
11
76.963567151171
21
30.880130185501
0
LINE
8
LAYER2
62
2
10
74.634281912152
20
31.788111614434
11
72.304996673133
21
32.696093043368
0
LINE
8
LAYER2
62
2
10
69.975711434114
20
33.604074472301
11
67.646426195095
21
34.512055901235
0
LINE
8
LAYER2
62
2
10
65.317140956076
20
35.420037330168
11
62.987855717057
21
36.328018759102
0
LINE
8
LAYER2
62
2
10
60.658570478038
20
37.236000188036
11
58.329285239019
21
38.143981616969
0
LINE
8
LAYER2
62
2
10
56.000000000000
20
39.051963045903
11
53.670714760981
21
39.959944474836
0
LINE
8
LAYER2
62
2
10
51.341429521962
20
40.867925903770
11
49.012144282943
21
41.775907332703
0
LINE
8
LAYER2
62
2
10
46.682859043924
20
42.683888761637
11
44.353573804905
21
43.591870190570
0
LINE
8
LAYER2
62
2
10
42.024288565886
20
44.499851619504
11
39.695003326867
21
45.407833048437
0
LINE
8
LAYER2
62
2
10
37.365718087848
20
46.315814477371
11
35.036432848829
21
47.223795906305
0
LINE
8
LAYER2
62
2
10
32.707147609810
20
48.131777335238
11
30.377862370791
21
49.039758764172
0
LINE
8
LAYER2
62
2
10
28.048577131772
20
49.947740193105
11
25.719291892753
21
50.855721622039
0
LINE
8
LAYER2
62
2
10
23.390006653734
20
51.763703050972
11
21.060721414715
21
52.671684479906
0
LINE
8
LAYER2
62
2
10
19.457821318843
20
55.443094100055
11
21.787106557862
21
54.535112671121
0
LINE
8
LAYER2
62
2
10
24.116391796881
20
53.627131242188
11
26.445677035900
21
52.719149813254
0
LINE
8
LAYER2
62
2
10
28.774962274919
20
51.811168384320
11
31.104247513938
21
50.903186955387
0
LINE
8
LAYER2
62
2
10
33.433532752957
20
49.995205526453
11
35.762817991976
21
49.087224097520
0
LINE
8
LAYER2
62
2
10
38.092103230995
20
48.179242668586
11
40.421388470014
21
47.271261239653
0
LINE
8
LAYER2
62
2
10
42.750673709033
20
46.363279810719
11
45.079958948052
21
45.455298381786
0
LINE
8
LAYER2
62
2
10
47.409244187071
20
44.547316952852
11
49.738529426090
21
43.639335523918
0
LINE
8
LAYER2
62
2
10
52.067814665109
20
42.731354094985
11
54.397099904128
21
41.823372666051
0
LINE
8
LAYER2
62
2
10
56.726385143147
20
40.915391237118
11
59.055670382166
21
40.007409808184
0
LINE
8
LAYER2
62
2
10
61.384955621185
20
39.099428379251
11
63.714240860204
21
38.191446950317
0
LINE
8
LAYER2
62
2
10
66.043526099223
20
37.283465521384
11
68.372811338242
21
36.375484092450
0
LINE
8
LAYER2
62
2
10
70.702096577261
20
35.467502663517
11
73.031381816280
21
34.559521234583
0
LINE
8
LAYER2
62
2
10
75.360667055299
20
33.651539805649
11
77.689952294318
21
32.743558376716
0
LINE
8
LAYER2
62
2
10
80.019237533337
20
31.835576947782
11
82.348522772356
21
30.927595518849
0
LINE
8
LAYER2
62
2
10
84.677808011375
20
30.019614089915
11
87.007093250394
21
29.111632660982
0
LINE
8
LAYER2
62
2
10
89.336378489413
20
28.203651232048
11
91.665663728432
21
27.295669803115
0
LINE
8
LAYER2
62
2
10
93.994948967451
20
26.387688374181
11
93.268563824304
21
24.524260182966
0
LINE
8
LAYER2
62
2
10
18.731436175696
20
53.579665908839
11
19.457821318843
21
55.443094100055
0
LINE
8
LAYER2
62
2
10
93.362837602136
20
31.127924568299
11
91.583654859177
21
32.884201530272
0
LINE
8
LAYER2
62
2
10
89.804472116218
20
34.640478492245
11
88.025289373259
21
36.396755454218
0
LINE
8
LAYER2
62
2
10
86.246106630301
20
38.153032416191
11
84.466923887342
21
39.909309378165
0
LINE
8
LAYER2
62
2
10
82.687741144383
20
41.665586340138
11
80.908558401424
21
43.421863302111
0
LINE
8
LAYER2
62
2
10
79.129375658465
20
45.178140264084
11
77.350192915506
21
46.934417226057
0
LINE
8
LAYER2
62
2
10
75.571010172547
20
48.690694188030
11
73.791827429589
21
50.446971150003
0
LINE
8
LAYER2
62
2
10
72.012644686630
20
52.203248111976
11
70.233461943671
21
53.959525073949
0
LINE
8
LAYER2
62
2
10
68.454279200712
20
55.715802035922
11
66.675096457753
21
57.472078997895
0
LINE
8
LAYER2
62
2
10
64.895913714794
20
59.228355959868
11
63.116730971835
21
60.984632921842
0
LINE
8
LAYER2
62
2
10
61.337548228877
20
62.740909883815
11
59.558365485918
21
64.497186845788
0
LINE
8
LAYER2
62
2
10
57.779182742959
20
66.253463807761
11
56.000000000000
21
68.009740769734
0
LINE
8
LAYER2
62
2
10
54.220817257041
20
69.766017731707
11
52.441634514082
21
71.522294693680
0
LINE
8
LAYER2
62
2
10
50.662451771123
20
73.278571655653
11
48.883269028165
21
75.034848617626
0
LINE
8
LAYER2
62
2
10
47.104086285206
20
76.791125579599
11
45.324903542247
21
78.547402541572
0
LINE
8
LAYER2
62
2
10
43.545720799288
20
80.303679503545
11
41.766538056329
21
82.059956465519
0
LINE
8
LAYER2
62
2
10
39.987355313370
20
83.816233427492
11
38.208172570411
21
85.572510389465
0
LINE
8
LAYER2
62
2
10
36.428989827453
20
87.328787351438
11
34.649807084494
21
89.085064313411
0
LINE
8
LAYER2
62
2
10
32.870624341535
20
90.841341275384
11
31.091441598576
21
92.597618237357
0
LINE
8
LAYER2
62
2
10
29.312258855617
20
94.353895199330
11
27.533076112658
21
96.110172161303
0
LINE
8
LAYER2
62
2
10
25.753893369699
20
97.866449123276
11
23.974710626741
21
99.622726085249
0
LINE
8
LAYER2
62
2
10
22.195527883782
20
101.379003047222
11
20.416345140823
21
103.135280009196
0
LINE
8
LAYER2
62
2
10
20.042183967442
20
106.314903165536
11
21.821366710401
21
104.558626203563
0
LINE
8
LAYER2
62
2
10
23.600549453360
20
102.802349241589
11
25.379732196319
21
101.046072279616
0
LINE
8
LAYER2
62
2
10
27.158914939278
20
99.289795317643
11
28.938097682237
21
97.533518355670
0
LINE
8
LAYER2
62
2
10
30.717280425196
20
95.777241393697
11
32.496463168154
21
94.020964431724
0
LINE
8
LAYER2
62
2
10
34.275645911113
20
92.264687469751
11
36.054828654072
21
90.508410507778
0
LINE
8
LAYER2
62
2
10
37.834011397031
20
88.752133545805
11
39.613194139990
21
86.995856583832
0
LINE
8
LAYER2
62
2
10
41.392376882949
20
85.239579621859
11
43.171559625908
21
83.483302659886
0
LINE
8
LAYER2
62
2
10
44.950742368866
20
81.727025697912
11
46.729925111825
21
79.970748735939
0
LINE
8
LAYER2
62
2
10
48.509107854784
20
78.214471773966
11
50.288290597743
21
76.458194811993
0
LINE
8
LAYER2
62
2
10
52.067473340702
20
74.701917850020
11
53.846656083661
21
72.945640888047
0
LINE
8
LAYER2
62
2
10
55.625838826620
20
71.189363926074
11
57.405021569578
21
69.433086964101
0
LINE
8
LAYER2
62
2
10
59.184204312537
20
67.676810002128
11
60.963387055496
21
65.920533040155
0
LINE
8
LAYER2
62
2
10
62.742569798455
20
64.164256078182
11
64.521752541414
21
62.407979116208
0
LINE
8
LAYER2
62
2
10
66.300935284373
20
60.651702154235
11
68.080118027332
21
58.895425192262
0
LINE
8
LAYER2
62
2
10
69.859300770290
20
57.139148230289
11
71.638483513249
21
55.382871268316
0
LINE
8
LAYER2
62
2
10
73.417666256208
20
53.626594306343
11
75.196848999167
21
51.870317344370
0
LINE
8
LAYER2
62
2
10
76.976031742126
20
50.114040382397
11
78.755214485085
21
48.357763420424
0
LINE
8
LAYER2
62
2
10
80.534397228044
20
46.601486458451
11
82.313579971002
21
44.845209496478
0
LINE
8
LAYER2
62
2
10
84.092762713961
20
43.088932534505
11
85.871945456920
21
41.332655572532
0
LINE
8
LAYER2
62
2
10
87.651128199879
20
39.576378610558
11
89.430310942838
21
37.820101648585
0
LINE
8
LAYER2
62
2
10
91.209493685797
20
36.063824686612
11
92.988676428755
21
34.307547724639
0
LINE
8
LAYER2
62
2
10
94.767859171714
20
32.551270762666
11
93.362837602136
21
31.127924568299
0
LINE
8
LAYER2
62
2
10
18.637162397864
20
104.891556971169
11
20.042183967442
21
106.314903165536
0
LINE
8
LAYER2
62
2
10
101.410845325188
20
32.104556404716
11
100.445172304725
21
34.410521629422
0
LINE
8
LAYER2
62
2
10
99.479499284262
20
36.716486854127
11
98.513826263799
21
39.022452078832
0
LINE
8
LAYER2
62
2
10
97.548153243336
20
41.328417303537
11
96.582480222873
21
43.634382528243
0
LINE
8
LAYER2
62
2
10
95.616807202410
20
45.940347752948
11
94.651134181947
21
48.246312977653
0
LINE
8
LAYER2
62
2
10
93.685461161484
20
50.552278202358
11
92.719788141021
21
52.858243427063
0
LINE
8
LAYER2
62
2
10
91.754115120558
20
55.164208651769
11
90.788442100095
21
57.470173876474
0
LINE
8
LAYER2
62
2
10
89.822769079632
20
59.776139101179
11
88.857096059169
21
62.082104325884
0
LINE
8
LAYER2
62
2
10
87.891423038706
20
64.388069550590
11
86.925750018243
21
66.694034775295
0
LINE
8
LAYER2
62
2
10
85.960076997780
20
69.000000000000
11
84.994403977317
21
71.305965224705
0
LINE
8
LAYER2
62
2
10
84.028730956854
20
73.611930449410
11
83.063057936391
21
75.917895674116
0
LINE
8
LAYER2
62
2
10
82.097384915928
20
78.223860898821
11
81.131711895465
21
80.529826123526
0
LINE
8
LAYER2
62
2
10
80.166038875002
20
82.835791348231
11
79.200365854539
21
85.141756572937
0
LINE
8
LAYER2
62
2
10
78.234692834076
20
87.447721797642
11
77.269019813613
21
89.753687022347
0
LINE
8
LAYER2
62
2
10
76.303346793150
20
92.059652247052
11
75.337673772687
21
94.365617471757
0
LINE
8
LAYER2
62
2
10
74.372000752224
20
96.671582696463
11
73.406327731760
21
98.977547921168
0
LINE
8
LAYER2
62
2
10
72.440654711297
20
101.283513145873
11
71.474981690834
21
103.589478370578
0
LINE
8
LAYER2
62
2
10
72.354080850135
20
106.667982011654
11
73.319753870598
21
104.362016786949
0
LINE
8
LAYER2
62
2
10
74.285426891062
20
102.056051562244
11
75.251099911525
21
99.750086337538
0
LINE
8
LAYER2
62
2
10
76.216772931988
20
97.444121112833
11
77.182445952451
21
95.138155888128
0
LINE
8
LAYER2
62
2
10
78.148118972914
20
92.832190663423
11
79.113791993377
21
90.526225438717
0
LINE
8
LAYER2
62
2
10
80.079465013840
20
88.220260214012
11
81.045138034303
21
85.914294989307
0
LINE
8
LAYER2
62
2
10
82.010811054766
20
83.608329764602
11
82.976484075229
21
81.302364539897
0
LINE
8
LAYER2
62
2
10
83.942157095692
20
78.996399315191
11
84.907830116155
21
76.690434090486
0
LINE
8
LAYER2
62
2
10
85.873503136618
20
74.384468865781
11
86.839176157081
21
72.078503641076
0
LINE
8
LAYER2
62
2
10
87.804849177544
20
69.772538416370
11
88.770522198007
21
67.466573191665
0
LINE
8
LAYER2
62
2
10
89.736195218470
20
65.160607966960
11
90.701868238933
21
62.854642742255
0
LINE
8
LAYER2
62
2
10
91.667541259396
20
60.548677517550
11
92.633214279859
21
58.242712292844
0
LINE
8
LAYER2
62
2
10
93.598887300322
20
55.936747068139
11
94.564560320785
21
53.630781843434
0
LINE
8
LAYER2
62
2
10
95.530233341248
20
51.324816618729
11
96.495906361711
21
49.018851394023
0
LINE
8
LAYER2
62
2
10
97.461579382174
20
46.712886169318
11
98.427252402637
21
44.406920944613
0
LINE
8
LAYER2
62
2
10
99.392925423100
20
42.100955719908
11
100.358598443563
21
39.794990495203
0
LINE
8
LAYER2
62
2
10
101.324271464026
20
37.489025270497
11
102.289944484489
21
35.183060045792
0
LINE
8
LAYER2
62
2
10
103.255617504953
20
32.877094821087
11
101.410845325188
21
32.104556404716
0
LINE
8
LAYER2
62
2
10
70.509308670371
20
105.895443595284
11
72.354080850135
21
106.667982011654
0
LINE
8
LAYER2
62
2
10
110.527267378088
20
31.500000000000
11
110.527267378088
21
34.000000000000
0
LINE
8
LAYER2
62
2
10
110.527267378088
20
36.500000000000
11
110.527267378088
21
39.000000000000
0
LINE
8
LAYER2
62
2
10
110.527267378088
20
41.500000000000
11
110.527267378088
21
44.000000000000
0
LINE
8
LAYER2
62
2
10
110.527267378088
20
46.500000000000
11
110.527267378088
21
49.000000000000
0
LINE
8
LAYER2
62
2
10
110.527267378088
20
51.500000000000
11
110.527267378088
21
54.000000000000
0
LINE
8
LAYER2
62
2
10
110.527267378088
20
56.500000000000
11
110.527267378088
21
59.000000000000
0
LINE
8
LAYER2
62
2
10
110.527267378088
20
61.500000000000
11
110.527267378088
21
64.000000000000
0
LINE
8
LAYER2
62
2
10
110.527267378088
20
66.500000000000
11
110.527267378088
21
69.000000000000
0
LINE
8
LAYER2
62
2
10
110.527267378088
20
71.500000000000
11
110.527267378088
21
74.000000000000
0
LINE
8
LAYER2
62
2
10
110.527267378088
20
76.500000000000
11
110.527267378088
21
79.000000000000
0
LINE
8
LAYER2
62
2
10
110.527267378088
20
81.500000000000
11
110.527267378088
21
84.000000000000
0
LINE
8
LAYER2
62
2
10
110.527267378088
20
86.500000000000
11
110.527267378088
21
89.000000000000
0
LINE
8
LAYER2
62
2
10
110.527267378088
20
91.500000000000
11
110.527267378088
21
94.000000000000
0
LINE
8
LAYER2
62
2
10
110.527267378088
20
96.500000000000
11
110.527267378088
21
99.000000000000
0
LINE
8
LAYER2
62
2
10
110.527267378088
20
101.500000000000
11
110.527267378088
21
104.000000000000
0
LINE
8
LAYER2
62
2
10
112.527267378088
20
106.500000000000
11
112.527267378088
21
104.000000000000
0
LINE
8
LAYER2
62
2
10
112.527267378088
20
101.500000000000
11
112.527267378088
21
99.000000000000
0
LINE
8
LAYER2
62
2
10
112.527267378088
20
96.500000000000
11
112.527267378088
21
94.000000000000
0
LINE
8
LAYER2
62
2
10
112.527267378088
20
91.500000000000
11
112.527267378088
21
89.000000000000
0
LINE
8
LAYER2
62
2
10
112.527267378088
20
86.500000000000
11
112.527267378088
21
84.000000000000
0
LINE
8
LAYER2
62
2
10
112.527267378088
20
81.500000000000
11
112.527267378088
21
79.000000000000
0
LINE
8
LAYER2
62
2
10
112.527267378088
20
76.500000000000
11
112.527267378088
21
74.000000000000
0
LINE
8
LAYER2
62
2
10
112.527267378088
20
71.500000000000
11
112.527267378088
21
69.000000000000
0
LINE
8
LAYER2
62
2
10
112.527267378088
20
66.500000000000
11
112.527267378088
21
64.000000000000
0
LINE
8
LAYER2
62
2
10
112.527267378088
20
61.500000000000
11
112.527267378088
21
59.000000000000
0
LINE
8
LAYER2
62
2
10
112.527267378088
20
56.500000000000
11
112.527267378088
21
54.000000000000
0
LINE
8
LAYER2
62
2
10
112.527267378088
20
51.500000000000
11
112.527267378088
21
49.000000000000
0
LINE
8
LAYER2
62
2
10
112.527267378088
20
46.500000000000
11
112.527267378088
21
44.000000000000
0
LINE
8
LAYER2
62
2
10
112.527267378088
20
41.500000000000
11
112.527267378088
21
39.000000000000
0
LINE
8
LAYER2
62
2
10
112.527267378088
20
36.500000000000
11
112.527267378088
21
34.000000000000
0
LINE
8
LAYER2
62
2
10
112.527267378088
20
31.500000000000
11
110.527267378088
21
31.500000000000
0
LINE
8
LAYER2
62
2
10
110.527267378088
20
106.500000000000
11
112.527267378088
21
106.500000000000
0
LINE
8
LAYER2
62
2
10
135.527267378088
20
31.500000000000
11
135.527267378088
21
34.000000000000
0
LINE
8
LAYER2
62
2
10
135.527267378088
20
36.500000000000
11
135.527267378088
21
39.000000000000
0
LINE
8
LAYER2
62
2
10
135.527267378088
20
41.500000000000
11
135.527267378088
21
44.000000000000
0
LINE
8
LAYER2
62
2
10
135.527267378088
20
46.500000000000
11
135.527267378088
21
49.000000000000
0
LINE
8
LAYER2
62
2
10
135.527267378088
20
51.500000000000
11
135.527267378088
21
54.000000000000
0
LINE
8
LAYER2
62
2
10
135.527267378088
20
56.500000000000
11
135.527267378088
21
59.000000000000
0
LINE
8
LAYER2
62
2
10
135.527267378088
20
61.500000000000
11
135.527267378088
21
64.000000000000
0
LINE
8
LAYER2
62
2
10
135.527267378088
20
66.500000000000
11
135.527267378088
21
69.000000000000
0
LINE
8
LAYER2
62
2
10
135.527267378088
20
71.500000000000
11
135.527267378088
21
74.000000000000
0
LINE
8
LAYER2
62
2
10
135.527267378088
20
76.500000000000
11
135.527267378088
21
79.000000000000
0
LINE
8
LAYER2
62
2
10
135.527267378088
20
81.500000000000
11
135.527267378088
21
84.000000000000
0
LINE
8
LAYER2
62
2
10
135.527267378088
20
86.500000000000
11
135.527267378088
21
89.000000000000
0
LINE
8
LAYER2
62
2
10
135.527267378088
20
91.500000000000
11
135.527267378088
21
94.000000000000
0
LINE
8
LAYER2
62
2
10
135.527267378088
20
96.500000000000
11
135.527267378088
21
99.000000000000
0
LINE
8
LAYER2
62
2
10
135.527267378088
20
101.500000000000
11
135.527267378088
21
104.000000000000
0
LINE
8
LAYER2
62
2
10
137.527267378088
20
106.500000000000
11
137.527267378088
21
104.000000000000
0
LINE
8
LAYER2
62
2
10
137.527267378088
20
101.500000000000
11
137.527267378088
21
99.000000000000
0
LINE
8
LAYER2
62
2
10
137.527267378088
20
96.500000000000
11
137.527267378088
21
94.000000000000
0
LINE
8
LAYER2
62
2
10
137.527267378088
20
91.500000000000
11
137.527267378088
21
89.000000000000
0
LINE
8
LAYER2
62
2
10
137.527267378088
20
86.500000000000
11
137.527267378088
21
84.000000000000
0
LINE
8
LAYER2
62
2
10
137.527267378088
20
81.500000000000
11
137.527267378088
21
79.000000000000
0
LINE
8
LAYER2
62
2
10
137.527267378088
20
76.500000000000
11
137.527267378088
21
74.000000000000
0
LINE
8
LAYER2
62
2
10
137.527267378088
20
71.500000000000
11
137.527267378088
21
69.000000000000
0
LINE
8
LAYER2
62
2
10
137.527267378088
20
66.500000000000
11
137.527267378088
21
64.000000000000
0
LINE
8
LAYER2
62
2
10
137.527267378088
20
61.500000000000
11
137.527267378088
21
59.000000000000
0
LINE
8
LAYER2
62
2
10
137.527267378088
20
56.500000000000
11
137.527267378088
21
54.000000000000
0
LINE
8
LAYER2
62
2
10
137.527267378088
20
51.500000000000
11
137.527267378088
21
49.000000000000
0
LINE
8
LAYER2
62
2
10
137.527267378088
20
46.500000000000
11
137.527267378088
21
44.000000000000
0
LINE
8
LAYER2
62
2
10
137.527267378088
20
41.500000000000
11
137.527267378088
21
39.000000000000
0
LINE
8
LAYER2
62
2
10
137.527267378088
20
36.500000000000
11
137.527267378088
21
34.000000000000
0
LINE
8
LAYER2
62
2
10
137.527267378088
20
31.500000000000
11
135.527267378088
21
31.500000000000
0
LINE
8
LAYER2
62
2
10
135.527267378088
20
106.500000000000
11
137.527267378088
21
106.500000000000
0
LINE
8
LAYER2
62
2
10
160.527267378088
20
31.500000000000
11
160.527267378088
21
34.000000000000
0
LINE
8
LAYER2
62
2
10
160.527267378088
20
36.500000000000
11
160.527267378088
21
39.000000000000
0
LINE
8
LAYER2
62
2
10
160.527267378088
20
41.500000000000
11
160.527267378088
21
44.000000000000
0
LINE
8
LAYER2
62
2
10
160.527267378088
20
46.500000000000
11
160.527267378088
21
49.000000000000
0
LINE
8
LAYER2
62
2
10
160.527267378088
20
51.500000000000
11
160.527267378088
21
54.000000000000
0
LINE
8
LAYER2
62
2
10
160.527267378088
20
56.500000000000
11
160.527267378088
21
59.000000000000
0
LINE
8
LAYER2
62
2
10
160.527267378088
20
61.500000000000
11
160.527267378088
21
64.000000000000
0
LINE
8
LAYER2
62
2
10
160.527267378088
20
66.500000000000
11
160.527267378088
21
69.000000000000
0
LINE
8
LAYER2
62
2
10
160.527267378088
20
71.500000000000
11
160.527267378088
21
74.000000000000
0
LINE
8
LAYER2
62
2
10
160.527267378088
20
76.500000000000
11
160.527267378088
21
79.000000000000
0
LINE
8
LAYER2
62
2
10
160.527267378088
20
81.500000000000
11
160.527267378088
21
84.000000000000
0
LINE
8
LAYER2
62
2
10
160.527267378088
20
86.500000000000
11
160.527267378088
21
89.000000000000
0
LINE
8
LAYER2
62
2
10
160.527267378088
20
91.500000000000
11
160.527267378088
21
94.000000000000
0
LINE
8
LAYER2
62
2
10
160.527267378088
20
96.500000000000
11
160.527267378088
21
99.000000000000
0
LINE
8
LAYER2
62
2
10
160.527267378088
20
101.500000000000
11
160.527267378088
21
104.000000000000
0
LINE
8
LAYER2
62
2
10
162.527267378088
20
106.500000000000
11
162.527267378088
21
104.000000000000
0
LINE
8
LAYER2
62
2
10
162.527267378088
20
101.500000000000
11
162.527267378088
21
99.000000000000
0
LINE
8
LAYER2
62
2
10
162.527267378088
20
96.500000000000
11
162.527267378088
21
94.000000000000
0
LINE
8
LAYER2
62
2
10
162.527267378088
20
91.500000000000
11
162.527267378088
21
89.000000000000
0
LINE
8
LAYER2
62
2
10
162.527267378088
20
86.500000000000
11
162.527267378088
21
84.000000000000
0
LINE
8
LAYER2
62
2
10
162.527267378088
20
81.500000000000
11
162.527267378088
21
79.000000000000
0
LINE
8
LAYER2
62
2
10
162.527267378088
20
76.500000000000
11
162.527267378088
21
74.000000000000
0
LINE
8
LAYER2
62
2
10
162.527267378088
20
71.500000000000
11
162.527267378088
21
69.000000000000
0
LINE
8
LAYER2
62
2
10
162.527267378088
20
66.500000000000
11
162.527267378088
21
64.000000000000
0
LINE
8
LAYER2
62
2
10
162.527267378088
20
61.500000000000
11
162.527267378088
21
59.000000000000
0
LINE
8
LAYER2
62
2
10
162.527267378088
20
56.500000000000
11
162.527267378088
21
54.000000000000
0
LINE
8
LAYER2
62
2
10
162.527267378088
20
51.500000000000
11
162.527267378088
21
49.000000000000
0
LINE
8
LAYER2
62
2
10
162.527267378088
20
46.500000000000
11
162.527267378088
21
44.000000000000
0
LINE
8
LAYER2
62
2
10
162.527267378088
20
41.500000000000
11
162.527267378088
21
39.000000000000
0
LINE
8
LAYER2
62
2
10
162.527267378088
20
36.500000000000
11
162.527267378088
21
34.000000000000
0
LINE
8
LAYER2
62
2
10
162.527267378088
20
31.500000000000
11
160.527267378088
21
31.500000000000
0
LINE
8
LAYER2
62
2
10
160.527267378088
20
106.500000000000
11
162.527267378088
21
106.500000000000
0
LINE
8
LAYER2
62
2
10
185.527267378088
20
31.500000000000
11
185.527267378088
21
34.000000000000
0
LINE
8
LAYER2
62
2
10
185.527267378088
20
36.500000000000
11
185.527267378088
21
39.000000000000
0
LINE
8
LAYER2
62
2
10
185.527267378088
20
41.500000000000
11
185.527267378088
21
44.000000000000
0
LINE
8
LAYER2
62
2
10
185.527267378088
20
46.500000000000
11
185.527267378088
21
49.000000000000
0
LINE
8
LAYER2
62
2
10
185.527267378088
20
51.500000000000
11
185.527267378088
21
54.000000000000
0
LINE
8
LAYER2
62
2
10
185.527267378088
20
56.500000000000
11
185.527267378088
21
59.000000000000
0
LINE
8
LAYER2
62
2
10
185.527267378088
20
61.500000000000
11
185.527267378088
21
64.000000000000
0
LINE
8
LAYER2
62
2
10
185.527267378088
20
66.500000000000
11
185.527267378088
21
69.000000000000
0
LINE
8
LAYER2
62
2
10
185.527267378088
20
71.500000000000
11
185.527267378088
21
74.000000000000
0
LINE
8
LAYER2
62
2
10
185.527267378088
20
76.500000000000
11
185.527267378088
21
79.000000000000
0
LINE
8
LAYER2
62
2
10
185.527267378088
20
81.500000000000
11
185.527267378088
21
84.000000000000
0
LINE
8
LAYER2
62
2
10
185.527267378088
20
86.500000000000
11
185.527267378088
21
89.000000000000
0
LINE
8
LAYER2
62
2
10
185.527267378088
20
91.500000000000
11
185.527267378088
21
94.000000000000
0
LINE
8
LAYER2
62
2
10
185.527267378088
20
96.500000000000
11
185.527267378088
21
99.000000000000
0
LINE
8
LAYER2
62
2
10
185.527267378088
20
101.500000000000
11
185.527267378088
21
104.000000000000
0
LINE
8
LAYER2
62
2
10
187.527267378088
20
106.500000000000
11
187.527267378088
21
104.000000000000
0
LINE
8
LAYER2
62
2
10
187.527267378088
20
101.500000000000
11
187.527267378088
21
99.000000000000
0
LINE
8
LAYER2
62
2
10
187.527267378088
20
96.500000000000
11
187.527267378088
21
94.000000000000
0
LINE
8
LAYER2
62
2
10
187.527267378088
20
91.500000000000
11
187.527267378088
21
89.000000000000
0
LINE
8
LAYER2
62
2
10
187.527267378088
20
86.500000000000
11
187.527267378088
21
84.000000000000
0
LINE
8
LAYER2
62
2
10
187.527267378088
20
81.500000000000
11
187.527267378088
21
79.000000000000
0
LINE
8
LAYER2
62
2
10
187.527267378088
20
76.500000000000
11
187.527267378088
21
74.000000000000
0
LINE
8
LAYER2
62
2
10
187.527267378088
20
71.500000000000
11
187.527267378088
21
69.000000000000
0
LINE
8
LAYER2
62
2
10
187.527267378088
20
66.500000000000
11
187.527267378088
21
64.000000000000
0
LINE
8
LAYER2
62
2
10
187.527267378088
20
61.500000000000
11
187.527267378088
21
59.000000000000
0
LINE
8
LAYER2
62
2
10
187.527267378088
20
56.500000000000
11
187.527267378088
21
54.000000000000
0
LINE
8
LAYER2
62
2
10
187.527267378088
20
51.500000000000
11
187.527267378088
21
49.000000000000
0
LINE
8
LAYER2
62
2
10
187.527267378088
20
46.500000000000
11
187.527267378088
21
44.000000000000
0
LINE
8
LAYER2
62
2
10
187.527267378088
20
41.500000000000
11
187.527267378088
21
39.000000000000
0
LINE
8
LAYER2
62
2
10
187.527267378088
20
36.500000000000
11
187.527267378088
21
34.000000000000
0
LINE
8
LAYER2
62
2
10
187.527267378088
20
31.500000000000
11
185.527267378088
21
31.500000000000
0
LINE
8
LAYER2
62
2
10
185.527267378088
20
106.500000000000
11
187.527267378088
21
106.500000000000
0
LINE
8
LAYER2
62
2
10
210.527267378088
20
31.500000000000
11
210.527267378088
21
34.000000000000
0
LINE
8
LAYER2
62
2
10
210.527267378088
20
36.500000000000
11
210.527267378088
21
39.000000000000
0
LINE
8
LAYER2
62
2
10
210.527267378088
20
41.500000000000
11
210.527267378088
21
44.000000000000
0
LINE
8
LAYER2
62
2
10
210.527267378088
20
46.500000000000
11
210.527267378088
21
49.000000000000
0
LINE
8
LAYER2
62
2
10
210.527267378088
20
51.500000000000
11
210.527267378088
21
54.000000000000
0
LINE
8
LAYER2
62
2
10
210.527267378088
20
56.500000000000
11
210.527267378088
21
59.000000000000
0
LINE
8
LAYER2
62
2
10
210.527267378088
20
61.500000000000
11
210.527267378088
21
64.000000000000
0
LINE
8
LAYER2
62
2
10
210.527267378088
20
66.500000000000
11
210.527267378088
21
69.000000000000
0
LINE
8
LAYER2
62
2
10
210.527267378088
20
71.500000000000
11
210.527267378088
21
74.000000000000
0
LINE
8
LAYER2
62
2
10
210.527267378088
20
76.500000000000
11
210.527267378088
21
79.000000000000
0
LINE
8
LAYER2
62
2
10
210.527267378088
20
81.500000000000
11
210.527267378088
21
84.000000000000
0
LINE
8
LAYER2
62
2
10
210.527267378088
20
86.500000000000
11
210.527267378088
21
89.000000000000
0
LINE
8
LAYER2
62
2
10
210.527267378088
20
91.500000000000
11
210.527267378088
21
94.000000000000
0
LINE
8
LAYER2
62
2
10
210.527267378088
20
96.500000000000
11
210.527267378088
21
99.000000000000
0
LINE
8
LAYER2
62
2
10
210.527267378088
20
101.500000000000
11
210.527267378088
21
104.000000000000
0
LINE
8
LAYER2
62
2
10
212.527267378088
20
106.500000000000
11
212.527267378088
21
104.000000000000
0
LINE
8
LAYER2
62
2
10
212.527267378088
20
101.500000000000
11
212.527267378088
21
99.000000000000
0
LINE
8
LAYER2
62
2
10
212.527267378088
20
96.500000000000
11
212.527267378088
21
94.000000000000
0
LINE
8
LAYER2
62
2
10
212.527267378088
20
91.500000000000
11
212.527267378088
21
89.000000000000
0
LINE
8
LAYER2
62
2
10
212.527267378088
20
86.500000000000
11
212.527267378088
21
84.000000000000
0
LINE
8
LAYER2
62
2
10
212.527267378088
20
81.500000000000
11
212.527267378088
21
79.000000000000
0
LINE
8
LAYER2
62
2
10
212.527267378088
20
76.500000000000
11
212.527267378088
21
74.000000000000
0
LINE
8
LAYER2
62
2
10
212.527267378088
20
71.500000000000
11
212.527267378088
21
69.000000000000
0
LINE
8
LAYER2
62
2
10
212.527267378088
20
66.500000000000
11
212.527267378088
21
64.000000000000
0
LINE
8
LAYER2
62
2
10
212.527267378088
20
61.500000000000
11
212.527267378088
21
59.000000000000
0
LINE
8
LAYER2
62
2
10
212.527267378088
20
56.500000000000
11
212.527267378088
21
54.000000000000
0
LINE
8
LAYER2
62
2
10
212.527267378088
20
51.500000000000
11
212.527267378088
21
49.000000000000
0
LINE
8
LAYER2
62
2
10
212.527267378088
20
46.500000000000
11
212.527267378088
21
44.000000000000
0
LINE
8
LAYER2
62
2
10
212.527267378088
20
41.500000000000
11
212.527267378088
21
39.000000000000
0
LINE
8
LAYER2
62
2
10
212.527267378088
20
36.500000000000
11
212.527267378088
21
34.000000000000
0
LINE
8
LAYER2
62
2
10
212.527267378088
20
31.500000000000
11
210.527267378088
21
31.500000000000
0
LINE
8
LAYER2
62
2
10
210.527267378088
20
106.500000000000
11
212.527267378088
21
106.500000000000
0
LINE
8
LAYER2
62
2
10
235.527267378088
20
31.500000000000
11
235.527267378088
21
34.000000000000
0
LINE
8
LAYER2
62
2
10
235.527267378088
20
36.500000000000
11
235.527267378088
21
39.000000000000
0
LINE
8
LAYER2
62
2
10
235.527267378088
20
41.500000000000
11
235.527267378088
21
44.000000000000
0
LINE
8
LAYER2
62
2
10
235.527267378088
20
46.500000000000
11
235.527267378088
21
49.000000000000
0
LINE
8
LAYER2
62
2
10
235.527267378088
20
51.500000000000
11
235.527267378088
21
54.000000000000
0
LINE
8
LAYER2
62
2
10
235.527267378088
20
56.500000000000
11
235.527267378088
21
59.000000000000
0
LINE
8
LAYER2
62
2
10
235.527267378088
20
61.500000000000
11
235.527267378088
21
64.000000000000
0
LINE
8
LAYER2
62
2
10
235.527267378088
20
66.500000000000
11
235.527267378088
21
69.000000000000
0
LINE
8
LAYER2
62
2
10
235.527267378088
20
71.500000000000
11
235.527267378088
21
74.000000000000
0
LINE
8
LAYER2
62
2
10
235.527267378088
20
76.500000000000
11
235.527267378088
21
79.000000000000
0
LINE
8
LAYER2
62
2
10
235.527267378088
20
81.500000000000
11
235.527267378088
21
84.000000000000
0
LINE
8
LAYER2
62
2
10
235.527267378088
20
86.500000000000
11
235.527267378088
21
89.000000000000
0
LINE
8
LAYER2
62
2
10
235.527267378088
20
91.500000000000
11
235.527267378088
21
94.000000000000
0
LINE
8
LAYER2
62
2
10
235.527267378088
20
96.500000000000
11
235.527267378088
21
99.000000000000
0
LINE
8
LAYER2
62
2
10
235.527267378088
20
101.500000000000
11
235.527267378088
21
104.000000000000
0
LINE
8
LAYER2
62
2
10
237.527267378088
20
106.500000000000
11
237.527267378088
21
104.000000000000
0
LINE
8
LAYER2
62
2
10
237.527267378088
20
101.500000000000
11
237.527267378088
21
99.000000000000
0
LINE
8
LAYER2
62
2
10
237.527267378088
20
96.500000000000
11
237.527267378088
21
94.000000000000
0
LINE
8
LAYER2
62
2
10
237.527267378088
20
91.500000000000
11
237.527267378088
21
89.000000000000
0
LINE
8
LAYER2
62
2
10
237.527267378088
20
86.500000000000
11
237.527267378088
21
84.000000000000
0
LINE
8
LAYER2
62
2
10
237.527267378088
20
81.500000000000
11
237.527267378088
21
79.000000000000
0
LINE
8
LAYER2
62
2
10
237.527267378088
20
76.500000000000
11
237.527267378088
21
74.000000000000
0
LINE
8
LAYER2
62
2
10
237.527267378088
20
71.500000000000
11
237.527267378088
21
69.000000000000
0
LINE
8
LAYER2
62
2
10
237.527267378088
20
66.500000000000
11
237.527267378088
21
64.000000000000
0
LINE
8
LAYER2
62
2
10
237.527267378088
20
61.500000000000
11
237.527267378088
21
59.000000000000
0
LINE
8
LAYER2
62
2
10
237.527267378088
20
56.500000000000
11
237.527267378088
21
54.000000000000
0
LINE
8
LAYER2
62
2
10
237.527267378088
20
51.500000000000
11
237.527267378088
21
49.000000000000
0
LINE
8
LAYER2
62
2
10
237.527267378088
20
46.500000000000
11
237.527267378088
21
44.000000000000
0
LINE
8
LAYER2
62
2
10
237.527267378088
20
41.500000000000
11
237.527267378088
21
39.000000000000
0
LINE
8
LAYER2
62
2
10
237.527267378088
20
36.500000000000
11
237.527267378088
21
34.000000000000
0
LINE
8
LAYER2
62
2
10
237.527267378088
20
31.500000000000
11
235.527267378088
21
31.500000000000
0
LINE
8
LAYER2
62
2
10
235.527267378088
20
106.500000000000
11
237.527267378088
21
106.500000000000
0
LINE
8
LAYER2
62
2
10
260.527267378088
20
31.500000000000
11
260.527267378088
21
34.000000000000
0
LINE
8
LAYER2
62
2
10
260.527267378088
20
36.500000000000
11
260.527267378088
21
39.000000000000
0
LINE
8
LAYER2
62
2
10
260.527267378088
20
41.500000000000
11
260.527267378088
21
44.000000000000
0
LINE
8
LAYER2
62
2
10
260.527267378088
20
46.500000000000
11
260.527267378088
21
49.000000000000
0
LINE
8
LAYER2
62
2
10
260.527267378088
20
51.500000000000
11
260.527267378088
21
54.000000000000
0
LINE
8
LAYER2
62
2
10
260.527267378088
20
56.500000000000
11
260.527267378088
21
59.000000000000
0
LINE
8
LAYER2
62
2
10
260.527267378088
20
61.500000000000
11
260.527267378088
21
64.000000000000
0
LINE
8
LAYER2
62
2
10
260.527267378088
20
66.500000000000
11
260.527267378088
21
69.000000000000
0
LINE
8
LAYER2
62
2
10
260.527267378088
20
71.500000000000
11
260.527267378088
21
74.000000000000
0
LINE
8
LAYER2
62
2
10
260.527267378088
20
76.500000000000
11
260.527267378088
21
79.000000000000
0
LINE
8
LAYER2
62
2
10
260.527267378088
20
81.500000000000
11
260.527267378088
21
84.000000000000
0
LINE
8
LAYER2
62
2
10
260.527267378088
20
86.500000000000
11
260.527267378088
21
89.000000000000
0
LINE
8
LAYER2
62
2
10
260.527267378088
20
91.500000000000
11
260.527267378088
21
94.000000000000
0
LINE
8
LAYER2
62
2
10
260.527267378088
20
96.500000000000
11
260.527267378088
21
99.000000000000
0
LINE
8
LAYER2
62
2
10
260.527267378088
20
101.500000000000
11
260.527267378088
21
104.000000000000
0
LINE
8
LAYER2
62
2
10
262.527267378088
20
106.500000000000
11
262.527267378088
21
104.000000000000
0
LINE
8
LAYER2
62
2
10
262.527267378088
20
101.500000000000
11
262.527267378088
21
99.000000000000
0
LINE
8
LAYER2
62
2
10
262.527267378088
20
96.500000000000
11
262.527267378088
21
94.000000000000
0
LINE
8
LAYER2
62
2
10
262.527267378088
20
91.500000000000
11
262.527267378088
21
89.000000000000
0
LINE
8
LAYER2
62
2
10
262.527267378088
20
86.500000000000
11
262.527267378088
21
84.000000000000
0
LINE
8
LAYER2
62
2
10
262.527267378088
20
81.500000000000
11
262.527267378088
21
79.000000000000
0
LINE
8
LAYER2
62
2
10
262.527267378088
20
76.500000000000
11
262.527267378088
21
74.000000000000
0
LINE
8
LAYER2
62
2
10
262.527267378088
20
71.500000000000
11
262.527267378088
21
69.000000000000
0
LINE
8
LAYER2
62
2
10
262.527267378088
20
66.500000000000
11
262.527267378088
21
64.000000000000
0
LINE
8
LAYER2
62
2
10
262.527267378088
20
61.500000000000
11
262.527267378088
21
59.000000000000
0
LINE
8
LAYER2
62
2
10
262.527267378088
20
56.500000000000
11
262.527267378088
21
54.000000000000
0
LINE
8
LAYER2
62
2
10
262.527267378088
20
51.500000000000
11
262.527267378088
21
49.000000000000
0
LINE
8
LAYER2
62
2
10
262.527267378088
20
46.500000000000
11
262.527267378088
21
44.000000000000
0
LINE
8
LAYER2
62
2
10
262.527267378088
20
41.500000000000
11
262.527267378088
21
39.000000000000
0
LINE
8
LAYER2
62
2
10
262.527267378088
20
36.500000000000
11
262.527267378088
21
34.000000000000
0
LINE
8
LAYER2
62
2
10
262.527267378088
20
31.500000000000
11
260.527267378088
21
31.500000000000
0
LINE
8
LAYER2
62
2
10
260.527267378088
20
106.500000000000
11
262.527267378088
21
106.500000000000
0
LINE
8
LAYER2
62
2
10
285.527267378088
20
31.500000000000
11
285.527267378088
21
34.000000000000
0
LINE
8
LAYER2
62
2
10
285.527267378088
20
36.500000000000
11
285.527267378088
21
39.000000000000
0
LINE
8
LAYER2
62
2
10
285.527267378088
20
41.500000000000
11
285.527267378088
21
44.000000000000
0
LINE
8
LAYER2
62
2
10
285.527267378088
20
46.500000000000
11
285.527267378088
21
49.000000000000
0
LINE
8
LAYER2
62
2
10
285.527267378088
20
51.500000000000
11
285.527267378088
21
54.000000000000
0
LINE
8
LAYER2
62
2
10
285.527267378088
20
56.500000000000
11
285.527267378088
21
59.000000000000
0
LINE
8
LAYER2
62
2
10
285.527267378088
20
61.500000000000
11
285.527267378088
21
64.000000000000
0
LINE
8
LAYER2
62
2
10
285.527267378088
20
66.500000000000
11
285.527267378088
21
69.000000000000
0
LINE
8
LAYER2
62
2
10
285.527267378088
20
71.500000000000
11
285.527267378088
21
74.000000000000
0
LINE
8
LAYER2
62
2
10
285.527267378088
20
76.500000000000
11
285.527267378088
21
79.000000000000
0
LINE
8
LAYER2
62
2
10
285.527267378088
20
81.500000000000
11
285.527267378088
21
84.000000000000
0
LINE
8
LAYER2
62
2
10
285.527267378088
20
86.500000000000
11
285.527267378088
21
89.000000000000
0
LINE
8
LAYER2
62
2
10
285.527267378088
20
91.500000000000
11
285.527267378088
21
94.000000000000
0
LINE
8
LAYER2
62
2
10
285.527267378088
20
96.500000000000
11
285.527267378088
21
99.000000000000
0
LINE
8
LAYER2
62
2
10
285.527267378088
20
101.500000000000
11
285.527267378088
21
104.000000000000
0
LINE
8
LAYER2
62
2
10
287.527267378088
20
106.500000000000
11
287.527267378088
21
104.000000000000
0
LINE
8
LAYER2
62
2
10
287.527267378088
20
101.500000000000
11
287.527267378088
21
99.000000000000
0
LINE
8
LAYER2
62
2
10
287.527267378088
20
96.500000000000
11
287.527267378088
21
94.000000000000
0
LINE
8
LAYER2
62
2
10
287.527267378088
20
91.500000000000
11
287.527267378088
21
89.000000000000
0
LINE
8
LAYER2
62
2
10
287.527267378088
20
86.500000000000
11
287.527267378088
21
84.000000000000
0
LINE
8
LAYER2
62
2
10
287.527267378088
20
81.500000000000
11
287.527267378088
21
79.000000000000
0
LINE
8
LAYER2
62
2
10
287.527267378088
20
76.500000000000
11
287.527267378088
21
74.000000000000
0
LINE
8
LAYER2
62
2
10
287.527267378088
20
71.500000000000
11
287.527267378088
21
69.000000000000
0
LINE
8
LAYER2
62
2
10
287.527267378088
20
66.500000000000
11
287.527267378088
21
64.000000000000
0
LINE
8
LAYER2
62
2
10
287.527267378088
20
61.500000000000
11
287.527267378088
21
59.000000000000
0
LINE
8
LAYER2
62
2
10
287.527267378088
20
56.500000000000
11
287.527267378088
21
54.000000000000
0
LINE
8
LAYER2
62
2
10
287.527267378088
20
51.500000000000
11
287.527267378088
21
49.000000000000
0
LINE
8
LAYER2
62
2
10
287.527267378088
20
46.500000000000
11
287.527267378088
21
44.000000000000
0
LINE
8
LAYER2
62
2
10
287.527267378088
20
41.500000000000
11
287.527267378088
21
39.000000000000
0
LINE
8
LAYER2
62
2
10
287.527267378088
20
36.500000000000
11
287.527267378088
21
34.000000000000
0
LINE
8
LAYER2
62
2
10
287.527267378088
20
31.500000000000
11
285.527267378088
21
31.500000000000
0
LINE
8
LAYER2
62
2
10
285.527267378088
20
106.500000000000
11
287.527267378088
21
106.500000000000
0
LINE
8
LAYER2
62
2
10
294.281600658030
20
32.791586190174
11
295.310070513703
21
35.070237053288
0
LINE
8
LAYER2
62
2
10
296.338540369377
20
37.348887916402
11
297.367010225050
21
39.627538779516
0
LINE
8
LAYER2
62
2
10
298.395480080724
20
41.906189642631
11
299.423949936398
21
44.184840505745
0
LINE
8
LAYER2
62
2
10
300.452419792071
20
46.463491368859
11
301.480889647745
21
48.742142231973
0
LINE
8
LAYER2
62
2
10
302.509359503419
20
51.020793095087
11
303.537829359092
21
53.299443958201
0
LINE
8
LAYER2
62
2
10
304.566299214766
20
55.578094821315
11
305.594769070439
21
57.856745684429
0
LINE
8
LAYER2
62
2
10
306.623238926113
20
60.135396547544
11
307.651708781787
21
62.414047410658
0
LINE
8
LAYER2
62
2
10
308.680178637460
20
64.692698273772
11
309.708648493134
21
66.971349136886
0
LINE
8
LAYER2
62
2
10
310.737118348807
20
69.250000000000
11
311.765588204481
21
71.528650863114
0
LINE
8
LAYER2
62
2
10
312.794058060155
20
73.807301726228
11
313.822527915828
21
76.085952589342
0
LINE
8
LAYER2
62
2
10
314.850997771502
20
78.364603452457
11
315.879467627176
21
80.643254315571
0
LINE
8
LAYER2
62
2
10
316.907937482849
20
82.921905178685
11
317.936407338523
21
85.200556041799
0
LINE
8
LAYER2
62
2
10
318.964877194196
20
87.479206904913
11
319.993347049870
21
89.757857768027
0
LINE
8
LAYER2
62
2
10
321.021816905544
20
92.036508631141
11
322.050286761217
21
94.315159494255
0
LINE
8
LAYER2
62
2
10
323.078756616891
20
96.593810357370
11
324.107226472565
21
98.872461220484
0
LINE
8
LAYER2
62
2
10
325.135696328238
20
101.151112083598
11
326.164166183912
21
103.429762946712
0
LINE
8
LAYER2
62
2
10
329.015556730076
20
104.885637925287
11
327.987086874402
21
102.606987062173
0
LINE
8
LAYER2
62
2
10
326.958617018729
20
100.328336199059
11
325.930147163055
21
98.049685335945
0
LINE
8
LAYER2
62
2
10
324.901677307382
20
95.771034472831
11
323.873207451708
21
93.492383609716
0
LINE
8
LAYER2
62
2
10
322.844737596034
20
91.213732746602
11
321.816267740361
21
88.935081883488
0
LINE
8
LAYER2
62
2
10
320.787797884687
20
86.656431020374
11
319.759328029013
21
84.377780157260
0
LINE
8
LAYER2
62
2
10
318.730858173340
20
82.099129294146
11
317.702388317666
21
79.820478431032
0
LINE
8
LAYER2
62
2
10
316.673918461993
20
77.541827567918
11
315.645448606319
21
75.263176704803
0
LINE
8
LAYER2
62
2
10
314.616978750645
20
72.984525841689
11
313.588508894972
21
70.705874978575
0
LINE
8
LAYER2
62
2
10
312.560039039298
20
68.427224115461
11
311.531569183624
21
66.148573252347
0
LINE
8
LAYER2
62
2
10
310.503099327951
20
63.869922389233
11
309.474629472277
21
61.591271526119
0
LINE
8
LAYER2
62
2
10
308.446159616604
20
59.312620663005
11
307.417689760930
21
57.033969799890
0
LINE
8
LAYER2
62
2
10
306.389219905256
20
54.755318936776
11
305.360750049583
21
52.476668073662
0
LINE
8
LAYER2
62
2
10
304.332280193909
20
50.198017210548
11
303.303810338236
21
47.919366347434
0
LINE
8
LAYER2
62
2
10
302.275340482562
20
45.640715484320
11
301.246870626888
21
43.362064621206
0
LINE
8
LAYER2
62
2
10
300.218400771215
20
41.083413758092
11
299.189930915541
21
38.804762894978
0
LINE
8
LAYER2
62
2
10
298.161461059867
20
36.526112031863
11
297.132991204194
21
34.247461168749
0
LINE
8
LAYER2
62
2
10
296.104521348521
20
31.968810305635
11
294.281600658030
21
32.791586190174
0
LINE
8
LAYER2
62
2
10
327.192636039585
20
105.708413809826
11
329.015556730076
21
104.885637925287
0
LINE
8
LAYER2
62
2
10
298.100457036785
20
26.296587073836
11
299.905197177890
21
28.026590837729
0
LINE
8
LAYER2
62
2
10
301.709937318996
20
29.756594601621
11
303.514677460101
21
31.486598365514
0
LINE
8
LAYER2
62
2
10
305.319417601207
20
33.216602129407
11
307.124157742312
21
34.946605893299
0
LINE
8
LAYER2
62
2
10
308.928897883418
20
36.676609657192
11
310.733638024523
21
38.406613421084
0
LINE
8
LAYER2
62
2
10
312.538378165629
20
40.136617184977
11
314.343118306734
21
41.866620948870
0
LINE
8
LAYER2
62
2
10
316.147858447840
20
43.596624712762
11
317.952598588945
21
45.326628476655
0
LINE
8
LAYER2
62
2
10
319.757338730051
20
47.056632240547
11
321.562078871156
21
48.786636004440
0
LINE
8
LAYER2
62
2
10
323.366819012261
20
50.516639768333
11
325.171559153367
21
52.246643532225
0
LINE
8
LAYER2
62
2
10
326.976299294472
20
53.976647296118
11
328.781039435578
21
55.706651060010
0
LINE
8
LAYER2
62
2
10
330.585779576683
20
57.436654823903
11
332.390519717789
21
59.166658587796
0
LINE
8
LAYER2
62
2
10
334.195259858894
20
60.896662351688
11
336.000000000000
21
62.626666115581
0
LINE
8
LAYER2
62
2
10
337.804740141105
20
64.356669879473
11
339.609480282211
21
66.086673643366
0
LINE
8
LAYER2
62
2
10
341.414220423316
20
67.816677407259
11
343.218960564422
21
69.546681171151
0
LINE
8
LAYER2
62
2
10
345.023700705527
20
71.276684935044
11
346.828440846633
21
73.006688698936
0
LINE
8
LAYER2
62
2
10
348.633180987738
20
74.736692462829
11
350.437921128844
21
76.466696226722
0
LINE
8
LAYER2
62
2
10
352.242661269949
20
78.196699990614
11
354.047401411054
21
79.926703754507
0
LINE
8
LAYER2
62
2
10
355.852141552160
20
81.656707518399
11
357.656881693265
21
83.386711282292
0
LINE
8
LAYER2
62
2
10
359.461621834371
20
85.116715046185
11
361.266361975476
21
86.846718810077
0
LINE
8
LAYER2
62
2
10
363.071102116582
20
88.576722573970
11
364.875842257687
21
90.306726337862
0
LINE
8
LAYER2
62
2
10
366.680582398793
20
92.036730101755
11
368.485322539898
21
93.766733865648
0
LINE
8
LAYER2
62
2
10
370.290062681004
20
95.496737629540
11
372.094802822109
21
97.226741393433
0
LINE
8
LAYER2
62
2
10
375.283545974329
20
97.512953044441
11
373.478805833224
21
95.782949280549
0
LINE
8
LAYER2
62
2
10
371.674065692118
20
94.052945516656
11
369.869325551013
21
92.322941752763
0
LINE
8
LAYER2
62
2
10
368.064585409907
20
90.592937988871
11
366.259845268802
21
88.862934224978
0
LINE
8
LAYER2
62
2
10
364.455105127696
20
87.132930461086
11
362.650364986591
21
85.402926697193
0
LINE
8
LAYER2
62
2
10
360.845624845485
20
83.672922933300
11
359.040884704380
21
81.942919169408
0
LINE
8
LAYER2
62
2
10
357.236144563274
20
80.212915405515
11
355.431404422169
21
78.482911641623
0
LINE
8
LAYER2
62
2
10
353.626664281063
20
76.752907877730
11
351.821924139958
21
75.022904113837
0
LINE
8
LAYER2
62
2
10
350.017183998853
20
73.292900349945
11
348.212443857747
21
71.562896586052
0
LINE
8
LAYER2
62
2
10
346.407703716642
20
69.832892822160
11
344.602963575536
21
68.102889058267
0
LINE
8
LAYER2
62
2
10
342.798223434431
20
66.372885294374
11
340.993483293325
21
64.642881530482
0
LINE
8
LAYER2
62
2
10
339.188743152220
20
62.912877766589
11
337.384003011114
21
61.182874002697
0
LINE
8
LAYER2
62
2
10
335.579262870009
20
59.452870238804
11
333.774522728903
21
57.722866474911
0
LINE
8
LAYER2
62
2
10
331.969782587798
20
55.992862711019
11
330.165042446692
21
54.262858947126
0
LINE
8
LAYER2
62
2
10
328.360302305587
20
52.532855183234
11
326.555562164481
21
50.802851419341
0
LINE
8
LAYER2
62
2
10
324.750822023376
20
49.072847655448
11
322.946081882271
21
47.342843891556
0
LINE
8
LAYER2
62
2
10
321.141341741165
20
45.612840127663
11
319.336601600060
21
43.882836363771
0
LINE
8
LAYER2
62
2
10
317.531861458954
20
42.152832599878
11
315.727121317849
21
40.422828835985
0
LINE
8
LAYER2
62
2
10
313.922381176743
20
38.692825072093
11
312.117641035638
21
36.962821308200
0
LINE
8
LAYER2
62
2
10
310.312900894532
20
35.232817544308
11
308.508160753427
21
33.502813780415
0
LINE
8
LAYER2
62
2
10
306.703420612321
20
31.772810016522
11
304.898680471216
21
30.042806252630
0
LINE
8
LAYER2
62
2
10
303.093940330110
20
28.312802488737
11
301.289200189005
21
26.582798724845
0
LINE
8
LAYER2
62
2
10
299.484460047899
20
24.852794960952
11
298.100457036785
21
26.296587073836
0
LINE
8
LAYER2
62
2
10
373.899542963215
20
98.956745157326
11
375.283545974329
21
97.512953044441
0
LINE
8
LAYER2
62
2
10
298.193847902102
20
21.612039295443
11
300.556732408221
21
22.428603322782
0
LINE
8
LAYER2
62
2
10
302.919616914339
20
23.245167350121
11
305.282501420458
21
24.061731377460
0
LINE
8
LAYER2
62
2
10
307.645385926577
20
24.878295404800
11
310.008270432695
21
25.694859432139
0
LINE
8
LAYER2
62
2
10
312.371154938814
20
26.511423459478
11
314.734039444933
21
27.327987486818
0
LINE
8
LAYER2
62
2
10
317.096923951051
20
28.144551514157
11
319.459808457170
21
28.961115541496
0
LINE
8
LAYER2
62
2
10
321.822692963288
20
29.777679568835
11
324.185577469407
21
30.594243596175
0
LINE
8
LAYER2
62
2
10
326.548461975526
20
31.410807623514
11
328.911346481644
21
32.227371650853
0
LINE
8
LAYER2
62
2
10
331.274230987763
20
33.043935678193
11
333.637115493882
21
33.860499705532
0
LINE
8
LAYER2
62
2
10
336.000000000000
20
34.677063732871
11
338.362884506119
21
35.493627760211
0
LINE
8
LAYER2
62
2
10
340.725769012237
20
36.310191787550
11
343.088653518356
21
37.126755814889
0
LINE
8
LAYER2
62
2
10
345.451538024475
20
37.943319842228
11
347.814422530593
21
38.759883869568
0
LINE
8
LAYER2
62
2
10
350.177307036712
20
39.576447896907
11
352.540191542831
21
40.393011924246
0
LINE
8
LAYER2
62
2
10
354.903076048949
20
41.209575951586
11
357.265960555068
21
42.026139978925
0
LINE
8
LAYER2
62
2
10
359.628845061187
20
42.842704006264
11
361.991729567305
21
43.659268033603
0
LINE
8
LAYER2
62
2
10
364.354614073424
20
44.475832060943
11
366.717498579542
21
45.292396088282
0
LINE
8
LAYER2
62
2
10
369.080383085661
20
46.108960115621
11
371.443267591780
21
46.925524142961
0
LINE
8
LAYER2
62
2
10
374.459403319769
20
45.851780565405
11
372.096518813651
21
45.035216538066
0
LINE
8
LAYER2
62
2
10
369.733634307532
20
44.218652510726
11
367.370749801413
21
43.402088483387
0
LINE
8
LAYER2
62
2
10
365.007865295295
20
42.585524456048
11
362.644980789176
21
41.768960428709
0
LINE
8
LAYER2
62
2
10
360.282096283058
20
40.952396401369
11
357.919211776939
21
40.135832374030
0
LINE
8
LAYER2
62
2
10
355.556327270820
20
39.319268346691
11
353.193442764702
21
38.502704319351
0
LINE
8
LAYER2
62
2
10
350.830558258583
20
37.686140292012
11
348.467673752464
21
36.869576264673
0
LINE
8
LAYER2
62
2
10
346.104789246346
20
36.053012237333
11
343.741904740227
21
35.236448209994
0
LINE
8
LAYER2
62
2
10
341.379020234109
20
34.419884182655
11
339.016135727990
21
33.603320155316
0
LINE
8
LAYER2
62
2
10
336.653251221871
20
32.786756127976
11
334.290366715753
21
31.970192100637
0
LINE
8
LAYER2
62
2
10
331.927482209634
20
31.153628073298
11
329.564597703515
21
30.337064045958
0
LINE
8
LAYER2
62
2
10
327.201713197397
20
29.520500018619
11
324.838828691278
21
28.703935991280
0
LINE
8
LAYER2
62
2
10
322.475944185159
20
27.887371963941
11
320.113059679041
21
27.070807936601
0
LINE
8
LAYER2
62
2
10
317.750175172922
20
26.254243909262
11
315.387290666804
21
25.437679881923
0
LINE
8
LAYER2
62
2
10
313.024406160685
20
24.621115854583
11
310.661521654566
21
23.804551827244
0
LINE
8
LAYER2
62
2
10
308.298637148448
20
22.987987799905
11
305.935752642329
21
22.171423772565
0
LINE
8
LAYER2
62
2
10
303.572868136210
20
21.354859745226
11
301.209983630092
21
20.538295717887
0
LINE
8
LAYER2
62
2
10
298.847099123974
20
19.721731690548
11
298.193847902102
21
21.612039295443
0
LINE
8
LAYER2
62
2
10
373.806152097898
20
47.742088170300
11
374.459403319769
21
45.851780565405
0
LINE
8
LAYER3
62
3
10
377.500000000000
20
114.500000000000
11
381.500000000000
21
114.500000000000
0
LINE
8
LAYER3
62
3
10
381.500000000000
20
114.500000000000
11
381.500000000000
21
10.000000000000
0
LINE
8
LAYER3
62
3
10
381.500000000000
20
10.000000000000
11
377.500000000000
21
10.000000000000
0
LINE
8
LAYER3
62
3
10
377.500000000000
20
10.000000000000
11
377.500000000000
21
114.500000000000
0
LINE
8
LAYER3
62
3
10
10.500000000000
20
110.500000000000
11
10.500000000000
21
114.500000000000
0
LINE
8
LAYER3
62
3
10
10.500000000000
20
114.500000000000
11
381.500000000000
21
114.500000000000
0
LINE
8
LAYER3
62
3
10
381.500000000000
20
114.500000000000
11
381.500000000000
21
110.500000000000
0
LINE
8
LAYER3
62
3
10
381.500000000000
20
110.500000000000
11
10.500000000000
21
110.500000000000
0
LINE
8
LAYER3
62
3
10
14.500000000000
20
9.999992370605
11
10.500000000000
21
9.999992370605
0
LINE
8
LAYER3
62
3
10
10.500000000000
20
9.999992370605
11
10.500000000000
21
114.500000000000
0
LINE
8
LAYER3
62
3
10
10.500000000000
20
114.500000000000
11
14.500000000000
21
114.500000000000
0
LINE
8
LAYER3
62
3
10
14.500000000000
20
114.500000000000
11
14.500000000000
21
9.999992370605
0
LINE
8
LAYER3
62
3
10
290.500000000000
20
21.500000000000
11
294.500000000000
21
21.500000000000
0
LINE
8
LAYER3
62
3
10
294.500000000000
20
21.500000000000
11
294.500000000000
21
18.000000000000
0
LINE
8
LAYER3
62
3
10
294.500000000000
20
18.000000000000
11
290.500000000000
21
18.000000000000
0
LINE
8
LAYER3
62
3
10
290.500000000000
20
18.000000000000
11
290.500000000000
21
21.500000000000
0
LINE
8
LAYER3
62
3
10
103.500000000000
20
23.500000000000
11
103.500000000000
21
27.500000000000
0
LINE
8
LAYER3
62
3
10
103.500000000000
20
27.500000000000
11
288.500000000000
21
27.500000000000
0
LINE
8
LAYER3
62
3
10
288.500000000000
20
27.500000000000
11
288.500000000000
21
23.500000000000
0
LINE
8
LAYER3
62
3
10
288.500000000000
20
23.500000000000
11
103.500000000000
21
23.500000000000
0
LINE
8
LAYER3
62
3
10
101.500000000000
20
9.999992370605
11
97.500000000000
21
9.999992370605
0
LINE
8
LAYER3
62
3
10
97.500000000000
20
9.999992370605
11
97.500000000000
21
21.500000000000
0
LINE
8
LAYER3
62
3
10
97.500000000000
20
21.500000000000
11
101.500000000000
21
21.500000000000
0
LINE
8
LAYER3
62
3
10
101.500000000000
20
21.500000000000
11
101.500000000000
21
9.999992370605
0
LINE
8
LAYER4
62
4
10
288.500000000000
20
18.000000000000
11
296.500000000000
21
18.000000000000
0
LINE
8
LAYER4
62
4
10
296.500000000000
20
18.000000000000
11
296.500000000000
21
10.000000000000
0
LINE
8
LAYER4
62
4
10
296.500000000000
20
10.000000000000
11
288.500000000000
21
10.000000000000
0
LINE
8
LAYER4
62
4
10
288.500000000000
20
10.000000000000
11
288.500000000000
21
18.000000000000
0
LINE
8
LAYER4
62
4
10
288.500000000000
20
21.500000000000
11
288.500000000000
21
29.500000000000
0
LINE
8
LAYER4
62
4
10
288.500000000000
20
29.500000000000
11
296.500000000000
21
29.500000000000
0
LINE
8
LAYER4
62
4
10
296.500000000000
20
29.500000000000
11
296.500000000000
21
21.500000000000
0
LINE
8
LAYER4
62
4
10
296.500000000000
20
21.500000000000
11
288.500000000000
21
21.500000000000
0
LINE
8
LAYER4
62
4
10
103.500000000000
20
21.500000000000
11
95.500000000000
21
21.500000000000
0
LINE
8
LAYER4
62
4
10
95.500000000000
20
21.500000000000
11
95.500000000000
21
29.500000000000
0
LINE
8
LAYER4
62
4
10
95.500000000000
20
29.500000000000
11
103.500000000000
21
29.500000000000
0
LINE
8
LAYER4
62
4
10
103.500000000000
20
29.500000000000
11
103.500000000000
21
21.500000000000
0
LINE
8
LAYER4
62
4
10
192.000000000000
20
18.500000000000
11
192.000000000000
21
23.500000000000
0
LINE
8
LAYER4
62
4
10
192.000000000000
20
23.500000000000
11
200.000000000000
21
23.500000000000
0
LINE
8
LAYER4
62
4
10
200.000000000000
20
23.500000000000
11
200.000000000000
21
18.500000000000
0
LINE
8
LAYER4
62
4
10
200.000000000000
20
18.500000000000
11
192.000000000000
21
18.500000000000
0
LINE
8
LAYER5
62
5
10
374.000000000000
20
107.000000000000
11
378.000000000000
21
107.000000000000
0
LINE
8
LAYER5
62
5
10
378.000000000000
20
107.000000000000
11
378.000000000000
21
10.000000000000
0
LINE
8
LAYER5
62
5
10
378.000000000000
20
10.000000000000
11
374.000000000000
21
10.000000000000
0
LINE
8
LAYER5
62
5
10
374.000000000000
20
10.000000000000
11
374.000000000000
21
107.000000000000
0
LINE
8
LAYER5
62
5
10
13.500000000000
20
107.000000000000
11
13.500000000000
21
111.000000000000
0
LINE
8
LAYER5
62
5
10
13.500000000000
20
111.000000000000
11
378.500000000000
21
111.000000000000
0
LINE
8
LAYER5
62
5
10
378.500000000000
20
111.000000000000
11
378.500000000000
21
107.000000000000
0
LINE
8
LAYER5
62
5
10
378.500000000000
20
107.000000000000
11
13.500000000000
21
107.000000000000
0
LINE
8
LAYER5
62
5
10
18.000000000000
20
9.999992370605
11
14.000000000000
21
9.999992370605
0
LINE
8
LAYER5
62
5
10
14.000000000000
20
9.999992370605
11
14.000000000000
21
107.000000000000
0
LINE
8
LAYER5
62
5
10
14.000000000000
20
107.000000000000
11
18.000000000000
21
107.000000000000
0
LINE
8
LAYER5
62
5
10
18.000000000000
20
107.000000000000
11
18.000000000000
21
9.999992370605
0
LINE
8
LAYER5
62
5
10
290.500000000000
20
21.500000000000
11
294.500000000000
21
21.500000000000
0
LINE
8
LAYER5
62
5
10
294.500000000000
20
21.500000000000
11
294.500000000000
21
18.000000000000
0
LINE
8
LAYER5
62
5
10
294.500000000000
20
18.000000000000
11
290.500000000000
21
18.000000000000
0
LINE
8
LAYER5
62
5
10
290.500000000000
20
18.000000000000
11
290.500000000000
21
21.500000000000
0
LINE
8
LAYER5
62
5
10
103.500000000000
20
23.500000000000
11
103.500000000000
21
27.500000000000
0
LINE
8
LAYER5
62
5
10
103.500000000000
20
27.500000000000
11
288.500000000000
21
27.500000000000
0
LINE
8
LAYER5
62
5
10
288.500000000000
20
27.500000000000
11
288.500000000000
21
23.500000000000
0
LINE
8
LAYER5
62
5
10
288.500000000000
20
23.500000000000
11
103.500000000000
21
23.500000000000
0
LINE
8
LAYER6
62
6
10
279.900001525879
20
24.150001525879
11
279.900001525879
21
26.849998474121
0
LINE
8
LAYER6
62
6
10
279.900001525879
20
26.849998474121
11
275.900001525879
21
26.849998474121
0
LINE
8
LAYER6
62
6
10
275.900001525879
20
26.849998474121
11
275.900001525879
21
24.150001525879
0
LINE
8
LAYER6
62
6
10
275.900001525879
20
24.150001525879
11
279.900001525879
21
24.150001525879
0
LINE
8
LAYER6
62
6
10
267.300003051758
20
24.150001525879
11
267.300003051758
21
26.849998474121
0
LINE
8
LAYER6
62
6
10
267.300003051758
20
26.849998474121
11
263.300003051758
21
26.849998474121
0
LINE
8
LAYER6
62
6
10
263.300003051758
20
26.849998474121
11
263.300003051758
21
24.150001525879
0
LINE
8
LAYER6
62
6
10
263.300003051758
20
24.150001525879
11
267.300003051758
21
24.150001525879
0
LINE
8
LAYER6
62
6
10
254.699996948242
20
24.150001525879
11
254.699996948242
21
26.849998474121
0
LINE
8
LAYER6
62
6
10
254.699996948242
20
26.849998474121
11
250.699996948242
21
26.849998474121
0
LINE
8
LAYER6
62
6
10
250.699996948242
20
26.849998474121
11
250.699996948242
21
24.150001525879
0
LINE
8
LAYER6
62
6
10
250.699996948242
20
24.150001525879
11
254.699996948242
21
24.150001525879
0
LINE
8
LAYER6
62
6
10
242.100006103516
20
24.150001525879
11
242.100006103516
21
26.849998474121
0
LINE
8
LAYER6
62
6
10
242.100006103516
20
26.849998474121
11
238.100006103516
21
26.849998474121
0
LINE
8
LAYER6
62
6
10
238.100006103516
20
26.849998474121
11
238.100006103516
21
24.150001525879
0
LINE
8
LAYER6
62
6
10
238.100006103516
20
24.150001525879
11
242.100006103516
21
24.150001525879
0
LINE
8
LAYER6
62
6
10
229.500000000000
20
24.150001525879
11
229.500000000000
21
26.849998474121
0
LINE
8
LAYER6
62
6
10
229.500000000000
20
26.849998474121
11
225.500000000000
21
26.849998474121
0
LINE
8
LAYER6
62
6
10
225.500000000000
20
26.849998474121
11
225.500000000000
21
24.150001525879
0
LINE
8
LAYER6
62
6
10
225.500000000000
20
24.150001525879
11
229.500000000000
21
24.150001525879
0
LINE
8
LAYER6
62
6
10
216.899993896484
20
24.150001525879
11
216.899993896484
21
26.849998474121
0
LINE
8
LAYER6
62
6
10
216.899993896484
20
26.849998474121
11
212.899993896484
21
26.849998474121
0
LINE
8
LAYER6
62
6
10
212.899993896484
20
26.849998474121
11
212.899993896484
21
24.150001525879
0
LINE
8
LAYER6
62
6
10
212.899993896484
20
24.150001525879
11
216.899993896484
21
24.150001525879
0
LINE
8
LAYER6
62
6
10
204.300003051758
20
24.150001525879
11
204.300003051758
21
26.849998474121
0
LINE
8
LAYER6
62
6
10
204.300003051758
20
26.849998474121
11
200.300003051758
21
26.849998474121
0
LINE
8
LAYER6
62
6
10
200.300003051758
20
26.849998474121
11
200.300003051758
21
24.150001525879
0
LINE
8
LAYER6
62
6
10
200.300003051758
20
24.150001525879
11
204.300003051758
21
24.150001525879
0
LINE
8
LAYER6
62
6
10
191.699996948242
20
24.150001525879
11
191.699996948242
21
26.849998474121
0
LINE
8
LAYER6
62
6
10
191.699996948242
20
26.849998474121
11
187.699996948242
21
26.849998474121
0
LINE
8
LAYER6
62
6
10
187.699996948242
20
26.849998474121
11
187.699996948242
21
24.150001525879
0
LINE
8
LAYER6
62
6
10
187.699996948242
20
24.150001525879
11
191.699996948242
21
24.150001525879
0
LINE
8
LAYER6
62
6
10
179.100006103516
20
24.150001525879
11
179.100006103516
21
26.849998474121
0
LINE
8
LAYER6
62
6
10
179.100006103516
20
26.849998474121
11
175.100006103516
21
26.849998474121
0
LINE
8
LAYER6
62
6
10
175.100006103516
20
26.849998474121
11
175.100006103516
21
24.150001525879
0
LINE
8
LAYER6
62
6
10
175.100006103516
20
24.150001525879
11
179.100006103516
21
24.150001525879
0
LINE
8
LAYER6
62
6
10
166.500000000000
20
24.150001525879
11
166.500000000000
21
26.849998474121
0
LINE
8
LAYER6
62
6
10
166.500000000000
20
26.849998474121
11
162.500000000000
21
26.849998474121
0
LINE
8
LAYER6
62
6
10
162.500000000000
20
26.849998474121
11
162.500000000000
21
24.150001525879
0
LINE
8
LAYER6
62
6
10
162.500000000000
20
24.150001525879
11
166.500000000000
21
24.150001525879
0
LINE
8
LAYER6
62
6
10
153.899993896484
20
24.150001525879
11
153.899993896484
21
26.849998474121
0
LINE
8
LAYER6
62
6
10
153.899993896484
20
26.849998474121
11
149.899993896484
21
26.849998474121
0
LINE
8
LAYER6
62
6
10
149.899993896484
20
26.849998474121
11
149.899993896484
21
24.150001525879
0
LINE
8
LAYER6
62
6
10
149.899993896484
20
24.150001525879
11
153.899993896484
21
24.150001525879
0
LINE
8
LAYER6
62
6
10
141.300003051758
20
24.150001525879
11
141.300003051758
21
26.849998474121
0
LINE
8
LAYER6
62
6
10
141.300003051758
20
26.849998474121
11
137.300003051758
21
26.849998474121
0
LINE
8
LAYER6
62
6
10
137.300003051758
20
26.849998474121
11
137.300003051758
21
24.150001525879
0
LINE
8
LAYER6
62
6
10
137.300003051758
20
24.150001525879
11
141.300003051758
21
24.150001525879
0
LINE
8
LAYER6
62
6
10
128.699996948242
20
24.150001525879
11
128.699996948242
21
26.849998474121
0
LINE
8
LAYER6
62
6
10
128.699996948242
20
26.849998474121
11
124.700012207031
21
26.849998474121
0
LINE
8
LAYER6
62
6
10
124.700012207031
20
26.849998474121
11
124.700012207031
21
24.150001525879
0
LINE
8
LAYER6
62
6
10
124.700012207031
20
24.150001525879
11
128.699996948242
21
24.150001525879
0
LINE
8
LAYER6
62
6
10
116.100006103516
20
24.150001525879
11
116.100006103516
21
26.849998474121
0
LINE
8
LAYER6
62
6
10
116.100006103516
20
26.849998474121
11
112.100006103516
21
26.849998474121
0
LINE
8
LAYER6
62
6
10
112.100006103516
20
26.849998474121
11
112.100006103516
21
24.150001525879
0
LINE
8
LAYER6
62
6
10
112.100006103516
20
24.150001525879
11
116.100006103516
21
24.150001525879
0
LINE
8
LAYER7
62
7
10
382.000000000000
20
115.000000000000
11
382.000000000000
21
10.000000000000
0
LINE
8
LAYER7
62
7
10
382.000000000000
20
10.000000000000
11
10.000000000000
21
10.000000000000
0
LINE
8
LAYER7
62
7
10
10.000000000000
20
10.000000000000
11
10.000000000000
21
115.000000000000
0
LINE
8
LAYER7
62
7
10
10.000000000000
20
115.000000000000
11
382.000000000000
21
115.000000000000
0
LINE
8
LAYER9
62
8
10
55.569274902344
20
10.999992370605
11
55.569274902344
21
49.430725097656
0
ARC
8
LAYER9
62
8
10
75.569274902344
20
49.430725097656
40
20.000000000000
50
90.000000000000
51
180.000000000000
0
LINE
8
LAYER9
62
8
10
75.569274902344
20
69.430725097656
11
316.430725097656
21
69.430725097656
0
ARC
8
LAYER9
62
8
10
316.430725097656
20
49.430725097656
40
20.000000000000
50
0.000000000000
51
90.000000000000
0
LINE
8
LAYER9
62
8
10
336.430725097656
20
49.430725097656
11
336.430725097656
21
10.000000000000
0
LINE
8
LAYER14
62
8
10
40.794274902344
20
26.509928573659
11
41.131774902344
21
27.109928573659
0
LINE
8
LAYER14
62
8
10
41.131774902344
20
27.109928573659
11
41.131774902344
21
25.109928573659
0
LINE
8
LAYER14
62
8
10
40.906774902344
20
25.109928573659
11
41.356774902344
21
25.109928573659
0
LINE
8
LAYER14
62
8
10
40.598051706830
20
52.549720590796
11
40.766801706830
21
52.849720590796
0
LINE
8
LAYER14
62
8
10
40.766801706830
20
52.849720590796
11
41.554301706830
21
52.849720590796
0
LINE
8
LAYER14
62
8
10
41.554301706830
20
52.849720590796
11
41.723051706830
21
52.549720590796
0
LINE
8
LAYER14
62
8
10
41.723051706830
20
52.549720590796
11
41.723051706830
21
52.249720590796
0
LINE
8
LAYER14
62
8
10
41.723051706830
20
52.249720590796
11
40.598051706830
21
51.149720590796
0
LINE
8
LAYER14
62
8
10
40.598051706830
20
51.149720590796
11
40.598051706830
21
50.849720590796
0
LINE
8
LAYER14
62
8
10
40.598051706830
20
50.849720590796
11
41.723051706830
21
50.849720590796
0
LINE
8
LAYER14
62
8
10
41.723051706830
20
50.849720590796
11
41.723051706830
21
51.149720590796
0
LINE
8
LAYER14
62
8
10
67.614710501832
20
85.314810903177
11
67.727210501832
21
85.514810903177
0
LINE
8
LAYER14
62
8
10
67.727210501832
20
85.514810903177
11
68.627210501832
21
85.514810903177
0
LINE
8
LAYER14
62
8
10
68.627210501832
20
85.514810903177
11
68.739710501832
21
85.314810903177
0
LINE
8
LAYER14
62
8
10
68.739710501832
20
85.314810903177
11
68.739710501832
21
84.914810903177
0
LINE
8
LAYER14
62
8
10
68.739710501832
20
84.914810903177
11
68.627210501832
21
84.714810903177
0
LINE
8
LAYER14
62
8
10
68.627210501832
20
84.714810903177
11
67.952210501832
21
84.714810903177
0
LINE
8
LAYER14
62
8
10
68.627210501832
20
84.714810903177
11
68.739710501832
21
84.514810903177
0
LINE
8
LAYER14
62
8
10
68.739710501832
20
84.514810903177
11
68.739710501832
21
83.714810903177
0
LINE
8
LAYER14
62
8
10
68.739710501832
20
83.714810903177
11
68.627210501832
21
83.514810903177
0
LINE
8
LAYER14
62
8
10
68.627210501832
20
83.514810903177
11
67.727210501832
21
83.514810903177
0
LINE
8
LAYER14
62
8
10
67.727210501832
20
83.514810903177
11
67.614710501832
21
83.714810903177
0
LINE
8
LAYER14
62
8
10
96.527267378088
20
86.430725097656
11
96.527267378088
21
85.630725097656
0
LINE
8
LAYER14
62
8
10
96.527267378088
20
85.630725097656
11
97.652267378088
21
85.630725097656
0
LINE
8
LAYER14
62
8
10
97.652267378088
20
86.430725097656
11
97.652267378088
21
84.430725097656
0
LINE
8
LAYER14
62
8
10
122.652267378088
20
86.430725097656
11
121.527267378088
21
86.430725097656
0
LINE
8
LAYER14
62
8
10
121.527267378088
20
86.430725097656
11
121.527267378088
21
85.630725097656
0
LINE
8
LAYER14
62
8
10
121.527267378088
20
85.630725097656
11
122.483517378088
21
85.630725097656
0
LINE
8
LAYER14
62
8
10
122.483517378088
20
85.630725097656
11
122.652267378088
21
85.330725097656
0
LINE
8
LAYER14
62
8
10
122.652267378088
20
85.330725097656
11
122.652267378088
21
84.730725097656
0
LINE
8
LAYER14
62
8
10
122.652267378088
20
84.730725097656
11
122.483517378088
21
84.430725097656
0
LINE
8
LAYER14
62
8
10
122.483517378088
20
84.430725097656
11
121.696017378088
21
84.430725097656
0
LINE
8
LAYER14
62
8
10
121.696017378088
20
84.430725097656
11
121.527267378088
21
84.730725097656
0
LINE
8
LAYER14
62
8
10
147.652267378088
20
86.430725097656
11
147.483517378088
21
86.430725097656
0
LINE
8
LAYER14
62
8
10
147.483517378088
20
86.430725097656
11
146.527267378088
21
85.930725097656
0
LINE
8
LAYER14
62
8
10
146.527267378088
20
85.930725097656
11
146.527267378088
21
84.730725097656
0
LINE
8
LAYER14
62
8
10
146.527267378088
20
84.730725097656
11
146.696017378088
21
84.430725097656
0
LINE
8
LAYER14
62
8
10
146.696017378088
20
84.430725097656
11
147.483517378088
21
84.430725097656
0
LINE
8
LAYER14
62
8
10
147.483517378088
20
84.430725097656
11
147.652267378088
21
84.730725097656
0
LINE
8
LAYER14
62
8
10
147.652267378088
20
84.730725097656
11
147.652267378088
21
85.330725097656
0
LINE
8
LAYER14
62
8
10
147.652267378088
20
85.330725097656
11
147.483517378088
21
85.630725097656
0
LINE
8
LAYER14
62
8
10
147.483517378088
20
85.630725097656
11
146.527267378088
21
85.630725097656
0
LINE
8
LAYER14
62
8
10
171.527267378088
20
86.130725097656
11
171.527267378088
21
86.430725097656
0
LINE
8
LAYER14
62
8
10
171.527267378088
20
86.430725097656
11
172.652267378088
21
86.430725097656
0
LINE
8
LAYER14
62
8
10
172.652267378088
20
86.430725097656
11
172.652267378088
21
85.730725097656
0
LINE
8
LAYER14
62
8
10
172.652267378088
20
85.730725097656
11
172.089767378088
21
85.230725097656
0
LINE
8
LAYER14
62
8
10
172.089767378088
20
85.230725097656
11
172.089767378088
21
84.430725097656
0
LINE
8
LAYER14
62
8
10
196.696017378088
20
84.430725097656
11
196.527267378088
21
84.730725097656
0
LINE
8
LAYER14
62
8
10
196.527267378088
20
84.730725097656
11
196.527267378088
21
85.130725097656
0
LINE
8
LAYER14
62
8
10
196.527267378088
20
85.130725097656
11
196.696017378088
21
85.430725097656
0
LINE
8
LAYER14
62
8
10
196.696017378088
20
85.430725097656
11
197.483517378088
21
85.430725097656
0
LINE
8
LAYER14
62
8
10
197.483517378088
20
85.430725097656
11
197.652267378088
21
85.130725097656
0
LINE
8
LAYER14
62
8
10
197.652267378088
20
85.130725097656
11
197.652267378088
21
84.730725097656
0
LINE
8
LAYER14
62
8
10
197.652267378088
20
84.730725097656
11
197.483517378088
21
84.430725097656
0
LINE
8
LAYER14
62
8
10
197.483517378088
20
84.430725097656
11
196.696017378088
21
84.430725097656
0
LINE
8
LAYER14
62
8
10
196.696017378088
20
85.430725097656
11
196.527267378088
21
85.730725097656
0
LINE
8
LAYER14
62
8
10
196.527267378088
20
85.730725097656
11
196.527267378088
21
86.130725097656
0
LINE
8
LAYER14
62
8
10
196.527267378088
20
86.130725097656
11
196.696017378088
21
86.430725097656
0
LINE
8
LAYER14
62
8
10
196.696017378088
20
86.430725097656
11
197.483517378088
21
86.430725097656
0
LINE
8
LAYER14
62
8
10
197.483517378088
20
86.430725097656
11
197.652267378088
21
86.130725097656
0
LINE
8
LAYER14
62
8
10
197.652267378088
20
86.130725097656
11
197.652267378088
21
85.730725097656
0
LINE
8
LAYER14
62
8
10
197.652267378088
20
85.730725097656
11
197.483517378088
21
85.430725097656
0
LINE
8
LAYER14
62
8
10
221.527267378088
20
84.730725097656
11
221.696017378088
21
84.430725097656
0
LINE
8
LAYER14
62
8
10
221.696017378088
20
84.430725097656
11
222.483517378088
21
84.430725097656
0
LINE
8
LAYER14
62
8
10
222.483517378088
20
84.430725097656
11
222.652267378088
21
84.730725097656
0
LINE
8
LAYER14
62
8
10
222.652267378088
20
84.730725097656
11
222.652267378088
21
86.130725097656
0
LINE
8
LAYER14
62
8
10
222.652267378088
20
86.130725097656
11
222.483517378088
21
86.430725097656
0
LINE
8
LAYER14
62
8
10
222.483517378088
20
86.430725097656
11
221.696017378088
21
86.430725097656
0
LINE
8
LAYER14
62
8
10
221.696017378088
20
86.430725097656
11
221.527267378088
21
86.130725097656
0
LINE
8
LAYER14
62
8
10
221.527267378088
20
86.130725097656
11
221.527267378088
21
85.730725097656
0
LINE
8
LAYER14
62
8
10
221.527267378088
20
85.730725097656
11
221.696017378088
21
85.430725097656
0
LINE
8
LAYER14
62
8
10
221.696017378088
20
85.430725097656
11
222.652267378088
21
85.430725097656
0
LINE
8
LAYER14
62
8
10
246.752267378088
20
85.830725097656
11
247.089767378088
21
86.430725097656
0
LINE
8
LAYER14
62
8
10
247.089767378088
20
86.430725097656
11
247.089767378088
21
84.430725097656
0
LINE
8
LAYER14
62
8
10
246.864767378088
20
84.430725097656
11
247.314767378088
21
84.430725097656
0
LINE
8
LAYER14
62
8
10
248.308517378088
20
84.430725097656
11
248.871017378088
21
84.430725097656
0
LINE
8
LAYER14
62
8
10
248.871017378088
20
84.430725097656
11
249.152267378088
21
84.930725097656
0
LINE
8
LAYER14
62
8
10
249.152267378088
20
84.930725097656
11
249.152267378088
21
85.930725097656
0
LINE
8
LAYER14
62
8
10
249.152267378088
20
85.930725097656
11
248.871017378088
21
86.430725097656
0
LINE
8
LAYER14
62
8
10
248.871017378088
20
86.430725097656
11
248.308517378088
21
86.430725097656
0
LINE
8
LAYER14
62
8
10
248.308517378088
20
86.430725097656
11
248.027267378088
21
85.930725097656
0
LINE
8
LAYER14
62
8
10
248.027267378088
20
85.930725097656
11
248.027267378088
21
84.930725097656
0
LINE
8
LAYER14
62
8
10
248.027267378088
20
84.930725097656
11
248.308517378088
21
84.430725097656
0
LINE
8
LAYER14
62
8
10
271.752267378088
20
85.830725097656
11
272.089767378088
21
86.430725097656
0
LINE
8
LAYER14
62
8
10
272.089767378088
20
86.430725097656
11
272.089767378088
21
84.430725097656
0
LINE
8
LAYER14
62
8
10
271.864767378088
20
84.430725097656
11
272.314767378088
21
84.430725097656
0
LINE
8
LAYER14
62
8
10
273.252267378088
20
85.830725097656
11
273.589767378088
21
86.430725097656
0
LINE
8
LAYER14
62
8
10
273.589767378088
20
86.430725097656
11
273.589767378088
21
84.430725097656
0
LINE
8
LAYER14
62
8
10
273.364767378088
20
84.430725097656
11
273.814767378088
21
84.430725097656
0
LINE
8
LAYER14
62
8
10
296.897978031134
20
85.830725097656
11
297.235478031134
21
86.430725097656
0
LINE
8
LAYER14
62
8
10
297.235478031134
20
86.430725097656
11
297.235478031134
21
84.430725097656
0
LINE
8
LAYER14
62
8
10
297.010478031134
20
84.430725097656
11
297.460478031134
21
84.430725097656
0
LINE
8
LAYER14
62
8
10
298.172978031134
20
86.130725097656
11
298.341728031134
21
86.430725097656
0
LINE
8
LAYER14
62
8
10
298.341728031134
20
86.430725097656
11
299.129228031134
21
86.430725097656
0
LINE
8
LAYER14
62
8
10
299.129228031134
20
86.430725097656
11
299.297978031134
21
86.130725097656
0
LINE
8
LAYER14
62
8
10
299.297978031134
20
86.130725097656
11
299.297978031134
21
85.830725097656
0
LINE
8
LAYER14
62
8
10
299.297978031134
20
85.830725097656
11
298.172978031134
21
84.730725097656
0
LINE
8
LAYER14
62
8
10
298.172978031134
20
84.730725097656
11
298.172978031134
21
84.430725097656
0
LINE
8
LAYER14
62
8
10
298.172978031134
20
84.430725097656
11
299.297978031134
21
84.430725097656
0
LINE
8
LAYER14
62
8
10
299.297978031134
20
84.430725097656
11
299.297978031134
21
84.730725097656
0
LINE
8
LAYER14
62
8
10
326.387583005183
20
84.450524943398
11
326.725083005183
21
85.050524943398
0
LINE
8
LAYER14
62
8
10
326.725083005183
20
85.050524943398
11
326.725083005183
21
83.050524943398
0
LINE
8
LAYER14
62
8
10
326.500083005183
20
83.050524943398
11
326.950083005183
21
83.050524943398
0
LINE
8
LAYER14
62
8
10
327.662583005183
20
84.850524943398
11
327.775083005183
21
85.050524943398
0
LINE
8
LAYER14
62
8
10
327.775083005183
20
85.050524943398
11
328.675083005183
21
85.050524943398
0
LINE
8
LAYER14
62
8
10
328.675083005183
20
85.050524943398
11
328.787583005183
21
84.850524943398
0
LINE
8
LAYER14
62
8
10
328.787583005183
20
84.850524943398
11
328.787583005183
21
84.450524943398
0
LINE
8
LAYER14
62
8
10
328.787583005183
20
84.450524943398
11
328.675083005183
21
84.250524943398
0
LINE
8
LAYER14
62
8
10
328.675083005183
20
84.250524943398
11
328.000083005183
21
84.250524943398
0
LINE
8
LAYER14
62
8
10
328.675083005183
20
84.250524943398
11
328.787583005183
21
84.050524943398
0
LINE
8
LAYER14
62
8
10
328.787583005183
20
84.050524943398
11
328.787583005183
21
83.250524943398
0
LINE
8
LAYER14
62
8
10
328.787583005183
20
83.250524943398
11
328.675083005183
21
83.050524943398
0
LINE
8
LAYER14
62
8
10
328.675083005183
20
83.050524943398
11
327.775083005183
21
83.050524943398
0
LINE
8
LAYER14
62
8
10
327.775083005183
20
83.050524943398
11
327.662583005183
21
83.250524943398
0
LINE
8
LAYER14
62
8
10
351.655725097656
20
50.662745129770
11
351.993225097656
21
51.262745129770
0
LINE
8
LAYER14
62
8
10
351.993225097656
20
51.262745129770
11
351.993225097656
21
49.262745129770
0
LINE
8
LAYER14
62
8
10
351.768225097656
20
49.262745129770
11
352.218225097656
21
49.262745129770
0
LINE
8
LAYER14
62
8
10
352.930725097656
20
51.262745129770
11
352.930725097656
21
50.462745129770
0
LINE
8
LAYER14
62
8
10
352.930725097656
20
50.462745129770
11
354.055725097656
21
50.462745129770
0
LINE
8
LAYER14
62
8
10
354.055725097656
20
51.262745129770
11
354.055725097656
21
49.262745129770
0
LINE
8
LAYER14
62
8
10
351.655725097656
20
25.400000000000
11
351.993225097656
21
26.000000000000
0
LINE
8
LAYER14
62
8
10
351.993225097656
20
26.000000000000
11
351.993225097656
21
24.000000000000
0
LINE
8
LAYER14
62
8
10
351.768225097656
20
24.000000000000
11
352.218225097656
21
24.000000000000
0
LINE
8
LAYER14
62
8
10
354.055725097656
20
26.000000000000
11
352.930725097656
21
26.000000000000
0
LINE
8
LAYER14
62
8
10
352.930725097656
20
26.000000000000
11
352.930725097656
21
25.200000000000
0
LINE
8
LAYER14
62
8
10
352.930725097656
20
25.200000000000
11
353.886975097656
21
25.200000000000
0
LINE
8
LAYER14
62
8
10
353.886975097656
20
25.200000000000
11
354.055725097656
21
24.900000000000
0
LINE
8
LAYER14
62
8
10
354.055725097656
20
24.900000000000
11
354.055725097656
21
24.300000000000
0
LINE
8
LAYER14
62
8
10
354.055725097656
20
24.300000000000
11
353.886975097656
21
24.000000000000
0
LINE
8
LAYER14
62
8
10
353.886975097656
20
24.000000000000
11
353.099475097656
21
24.000000000000
0
LINE
8
LAYER14
62
8
10
353.099475097656
20
24.000000000000
11
352.930725097656
21
24.300000000000
0
LINE
8
LAYER15
62
8
10
10.000000000000
20
0.000000000000
11
10.000000000000
21
115.000000000000
0
LINE
8
LAYER15
62
8
10
10.000000000000
20
115.000000000000
11
0.000000000000
21
125.000000000000
0
LINE
8
LAYER15
62
8
10
0.000000000000
20
125.000000000000
11
0.000000000000
21
0.000000000000
0
LINE
8
LAYER15
62
8
10
0.000000000000
20
0.000000000000
11
10.000000000000
21
0.000000000000
0
LINE
8
LAYER15
62
8
10
10.000000000000
20
115.000000000000
11
382.000000000000
21
115.000000000000
0
LINE
8
LAYER15
62
8
10
382.000000000000
20
115.000000000000
11
392.000000000000
21
125.000000000000
0
LINE
8
LAYER15
62
8
10
392.000000000000
20
125.000000000000
11
0.000000000000
21
125.000000000000
0
LINE
8
LAYER15
62
8
10
0.000000000000
20
125.000000000000
11
10.000000000000
21
115.000000000000
0
LINE
8
LAYER15
62
8
10
382.000000000000
20
115.000000000000
11
382.000000000000
21
10.000000000000
0
LINE
8
LAYER15
62
8
10
382.000000000000
20
10.000000000000
11
392.000000000000
21
10.000000000000
0
LINE
8
LAYER15
62
8
10
392.000000000000
20
10.000000000000
11
392.000000000000
21
125.000000000000
0
LINE
8
LAYER15
62
8
10
392.000000000000
20
125.000000000000
11
382.000000000000
21
115.000000000000
0
ENDSEC
0
EOF
