0
SECTION
2
HEADER
0
ENDSEC
0
SECTION
2
TABLES
0
TABLE
2
LTYPE
70
1
0
LTYPE
2
CONTINUOUS
70
64
3
Solid line
72
65
73
0
40
0
0
ENDTAB
0
TABLE
2
LAYER
70
20
0
LAYER
2
COMPASS
70
0
62
1
6
CONTINUOUS
0
LAYER
2
LAYER1
70
0
62
1
6
CONTINUOUS
0
LAYER
2
LAYER2
70
0
62
1
6
CONTINUOUS
0
LAYER
2
LAYER3
70
0
62
1
6
CONTINUOUS
0
LAYER
2
LAYER4
70
0
62
1
6
CONTINUOUS
0
LAYER
2
LAYER5
70
0
62
1
6
CONTINUOUS
0
LAYER
2
LAYER6
70
0
62
1
6
CONTINUOUS
0
LAYER
2
LAYER7
70
0
62
1
6
CONTINUOUS
0
LAYER
2
LAYER8
70
0
62
1
6
CONTINUOUS
0
LAYER
2
LAYER9
70
0
62
1
6
CONTINUOUS
0
LAYER
2
LAYER10
70
0
62
1
6
CONTINUOUS
0
LAYER
2
LAYER11
70
0
62
1
6
CONTINUOUS
0
LAYER
2
LAYER12
70
0
62
1
6
CONTINUOUS
0
LAYER
2
LAYER13
70
0
62
1
6
CONTINUOUS
0
LAYER
2
LAYER14
70
0
62
1
6
CONTINUOUS
0
LAYER
2
LAYER15
70
0
62
1
6
CONTINUOUS
0
LAYER
2
LAYER16
70
0
62
1
6
CONTINUOUS
0
LAYER
2
LAYER17
70
0
62
1
6
CONTINUOUS
0
LAYER
2
LAYER18
70
0
62
1
6
CONTINUOUS
0
LAYER
2
LAYER19
70
0
62
1
6
CONTINUOUS
0
ENDTAB
0
ENDSEC
0
SECTION
2
BLOCKS
0
ENDSEC
0
SECTION
2
ENTITIES
0
LINE
8
LAYER1
62
1
10
2.548276155335
20
19.500000000000
11
2.548276155335
21
100.500000000000
0
LINE
8
LAYER1
62
1
10
30.548276155335
20
17.500000000000
11
9.548276155335
21
17.500000000000
0
LINE
8
LAYER1
62
1
10
9.548276155335
20
17.500000000000
11
9.548276155335
21
19.500000000000
0
LINE
8
LAYER1
62
1
10
9.548276155335
20
19.500000000000
11
2.548276155335
21
19.500000000000
0
LINE
8
LAYER1
62
1
10
2.548276155335
20
100.500000000000
11
30.548276155335
21
100.500000000000
0
LINE
8
LAYER1
62
1
10
30.548276155335
20
100.500000000000
11
30.548276155335
21
17.500000000000
0
LINE
8
LAYER1
62
1
10
27.548276155335
20
17.500000000000
11
27.548276155335
21
100.500000000000
0
LINE
8
LAYER1
62
1
10
55.548276155335
20
17.500000000000
11
27.548276155335
21
17.500000000000
0
LINE
8
LAYER1
62
1
10
27.548276155335
20
100.500000000000
11
55.548276155335
21
100.500000000000
0
LINE
8
LAYER1
62
1
10
55.548276155335
20
100.500000000000
11
55.548276155335
21
17.500000000000
0
LINE
8
LAYER1
62
1
10
52.548276155335
20
17.500000000000
11
52.548276155335
21
100.500000000000
0
LINE
8
LAYER1
62
1
10
80.548276155335
20
17.500000000000
11
52.548276155335
21
17.500000000000
0
LINE
8
LAYER1
62
1
10
52.548276155335
20
100.500000000000
11
80.548276155335
21
100.500000000000
0
LINE
8
LAYER1
62
1
10
80.548276155335
20
100.500000000000
11
80.548276155335
21
17.500000000000
0
LINE
8
LAYER1
62
1
10
77.548276155335
20
17.500000000000
11
77.548276155335
21
100.500000000000
0
LINE
8
LAYER1
62
1
10
105.548276155335
20
17.500000000000
11
77.548276155335
21
17.500000000000
0
LINE
8
LAYER1
62
1
10
77.548276155335
20
100.500000000000
11
105.548276155335
21
100.500000000000
0
LINE
8
LAYER1
62
1
10
105.548276155335
20
100.500000000000
11
105.548276155335
21
17.500000000000
0
LINE
8
LAYER1
62
1
10
102.548276155335
20
17.500000000000
11
102.548276155335
21
100.500000000000
0
LINE
8
LAYER1
62
1
10
130.548276155335
20
17.500000000000
11
102.548276155335
21
17.500000000000
0
LINE
8
LAYER1
62
1
10
102.548276155335
20
100.500000000000
11
130.548276155335
21
100.500000000000
0
LINE
8
LAYER1
62
1
10
130.548276155335
20
100.500000000000
11
130.548276155335
21
17.500000000000
0
LINE
8
LAYER1
62
1
10
127.548276155335
20
17.500000000000
11
127.548276155335
21
100.500000000000
0
LINE
8
LAYER1
62
1
10
155.548276155335
20
17.500000000000
11
127.548276155335
21
17.500000000000
0
LINE
8
LAYER1
62
1
10
127.548276155335
20
100.500000000000
11
155.548276155335
21
100.500000000000
0
LINE
8
LAYER1
62
1
10
155.548276155335
20
100.500000000000
11
155.548276155335
21
17.500000000000
0
LINE
8
LAYER1
62
1
10
152.548276155335
20
17.500000000000
11
152.548276155335
21
100.500000000000
0
LINE
8
LAYER1
62
1
10
180.548276155335
20
17.500000000000
11
152.548276155335
21
17.500000000000
0
LINE
8
LAYER1
62
1
10
152.548276155335
20
100.500000000000
11
180.548276155335
21
100.500000000000
0
LINE
8
LAYER1
62
1
10
180.548276155335
20
100.500000000000
11
180.548276155335
21
17.500000000000
0
LINE
8
LAYER1
62
1
10
177.548276155335
20
17.500000000000
11
177.548276155335
21
100.500000000000
0
LINE
8
LAYER1
62
1
10
205.548276155335
20
17.500000000000
11
177.548276155335
21
17.500000000000
0
LINE
8
LAYER1
62
1
10
177.548276155335
20
100.500000000000
11
205.548276155335
21
100.500000000000
0
LINE
8
LAYER1
62
1
10
205.548276155335
20
100.500000000000
11
205.548276155335
21
17.500000000000
0
LINE
8
LAYER1
62
1
10
202.548276155335
20
17.500000000000
11
202.548276155335
21
100.500000000000
0
LINE
8
LAYER1
62
1
10
230.548276155335
20
17.500000000000
11
202.548276155335
21
17.500000000000
0
LINE
8
LAYER1
62
1
10
202.548276155335
20
100.500000000000
11
230.548276155335
21
100.500000000000
0
LINE
8
LAYER1
62
1
10
230.548276155335
20
100.500000000000
11
230.548276155335
21
17.500000000000
0
LINE
8
LAYER1
62
1
10
227.548276155335
20
17.500000000000
11
227.548276155335
21
100.500000000000
0
LINE
8
LAYER1
62
1
10
255.548276155335
20
17.500000000000
11
227.548276155335
21
17.500000000000
0
LINE
8
LAYER1
62
1
10
227.548276155335
20
100.500000000000
11
255.548276155335
21
100.500000000000
0
LINE
8
LAYER1
62
1
10
255.548276155335
20
100.500000000000
11
255.548276155335
21
17.500000000000
0
LINE
8
LAYER1
62
1
10
252.548276155335
20
17.500000000000
11
252.548276155335
21
100.500000000000
0
LINE
8
LAYER1
62
1
10
280.548276155335
20
17.500000000000
11
252.548276155335
21
17.500000000000
0
LINE
8
LAYER1
62
1
10
252.548276155335
20
100.500000000000
11
280.548276155335
21
100.500000000000
0
LINE
8
LAYER1
62
1
10
280.548276155335
20
100.500000000000
11
280.548276155335
21
17.500000000000
0
LINE
8
LAYER1
62
1
10
277.548276155335
20
17.500000000000
11
277.548276155335
21
100.500000000000
0
LINE
8
LAYER1
62
1
10
290.709320394078
20
19.500000000000
11
286.500000000000
21
19.500000000000
0
LINE
8
LAYER1
62
1
10
286.500000000000
20
19.500000000000
11
286.500000000000
21
17.500000000000
0
LINE
8
LAYER1
62
1
10
286.500000000000
20
17.500000000000
11
277.548276155335
21
17.500000000000
0
LINE
8
LAYER1
62
1
10
277.548276155335
20
100.500000000000
11
321.569944453518
21
100.500000000000
0
LINE
8
LAYER1
62
1
10
321.569944453518
20
100.500000000000
11
290.709320394078
21
19.500000000000
0
LINE
8
LAYER1
62
1
10
287.498959484373
20
19.500000000000
11
318.359583543813
21
100.500000000000
0
LINE
8
LAYER1
62
1
10
294.500000000000
20
14.203111424871
11
294.500000000000
21
19.500000000000
0
LINE
8
LAYER1
62
1
10
294.500000000000
20
19.500000000000
11
287.498959484373
21
19.500000000000
0
LINE
8
LAYER1
62
1
10
318.359583543813
20
100.500000000000
11
375.500000000000
21
100.500000000000
0
LINE
8
LAYER1
62
1
10
375.500000000000
20
100.500000000000
11
375.500000000000
21
98.524166829408
0
LINE
8
LAYER1
62
1
10
375.500000000000
20
98.524166829408
11
294.500000000000
21
14.203111424871
0
LINE
8
LAYER1
62
1
10
294.500000000000
20
18.533601214366
11
373.238083504575
21
100.500000000000
0
LINE
8
LAYER1
62
1
10
292.500000000000
20
10.078991849832
11
292.500000000000
21
11.500000000000
0
LINE
8
LAYER1
62
1
10
292.500000000000
20
11.500000000000
11
294.500000000000
21
11.500000000000
0
LINE
8
LAYER1
62
1
10
294.500000000000
20
11.500000000000
11
294.500000000000
21
18.533601214366
0
LINE
8
LAYER1
62
1
10
373.238083504575
20
100.500000000000
11
375.500000000000
21
100.500000000000
0
LINE
8
LAYER1
62
1
10
375.500000000000
20
100.500000000000
11
375.500000000000
21
39.553908775331
0
LINE
8
LAYER1
62
1
10
375.500000000000
20
39.553908775331
11
292.500000000000
21
10.078991849832
0
LINE
8
LAYER1
62
1
10
294.500000000000
20
13.972780499311
11
375.500000000000
21
42.737458462750
0
LINE
8
LAYER1
62
1
10
294.500000000000
20
0.000000000000
11
294.500000000000
21
8.000000000000
0
LINE
8
LAYER1
62
1
10
294.500000000000
20
8.000000000000
11
292.500000000000
21
8.000000000000
0
LINE
8
LAYER1
62
1
10
292.500000000000
20
8.000000000000
11
292.500000000000
21
11.500000000000
0
LINE
8
LAYER1
62
1
10
292.500000000000
20
11.500000000000
11
294.500000000000
21
11.500000000000
0
LINE
8
LAYER1
62
1
10
294.500000000000
20
11.500000000000
11
294.500000000000
21
13.972780499311
0
LINE
8
LAYER1
62
1
10
375.500000000000
20
42.737458462750
11
375.500000000000
21
0.000000000000
0
LINE
8
LAYER1
62
1
10
375.500000000000
20
0.000000000000
11
373.000000000000
21
0.000000000000
0
LINE
8
LAYER1
62
1
10
370.500000000000
20
0.000000000000
11
368.000000000000
21
0.000000000000
0
LINE
8
LAYER1
62
1
10
365.500000000000
20
0.000000000000
11
363.000000000000
21
0.000000000000
0
LINE
8
LAYER1
62
1
10
360.500000000000
20
0.000000000000
11
358.000000000000
21
0.000000000000
0
LINE
8
LAYER1
62
1
10
355.500000000000
20
0.000000000000
11
353.000000000000
21
0.000000000000
0
LINE
8
LAYER1
62
1
10
350.500000000000
20
0.000000000000
11
348.000000000000
21
0.000000000000
0
LINE
8
LAYER1
62
1
10
345.500000000000
20
0.000000000000
11
343.000000000000
21
0.000000000000
0
LINE
8
LAYER1
62
1
10
340.500000000000
20
0.000000000000
11
338.000000000000
21
0.000000000000
0
LINE
8
LAYER1
62
1
10
335.500000000000
20
0.000000000000
11
333.000000000000
21
0.000000000000
0
LINE
8
LAYER1
62
1
10
330.500000000000
20
0.000000000000
11
328.000000000000
21
0.000000000000
0
LINE
8
LAYER1
62
1
10
325.500000000000
20
0.000000000000
11
323.000000000000
21
0.000000000000
0
LINE
8
LAYER1
62
1
10
320.500000000000
20
0.000000000000
11
318.000000000000
21
0.000000000000
0
LINE
8
LAYER1
62
1
10
315.500000000000
20
0.000000000000
11
313.000000000000
21
0.000000000000
0
LINE
8
LAYER1
62
1
10
310.500000000000
20
0.000000000000
11
308.000000000000
21
0.000000000000
0
LINE
8
LAYER1
62
1
10
305.500000000000
20
0.000000000000
11
303.000000000000
21
0.000000000000
0
LINE
8
LAYER1
62
1
10
300.500000000000
20
0.000000000000
11
298.000000000000
21
0.000000000000
0
LINE
8
LAYER1
62
1
10
295.500000000000
20
0.000000000000
11
294.500000000000
21
0.000000000000
0
LINE
8
LAYER2
62
2
10
5.548276155335
20
21.500000000000
11
5.548276155335
21
24.000000000000
0
LINE
8
LAYER2
62
2
10
5.548276155335
20
26.500000000000
11
5.548276155335
21
29.000000000000
0
LINE
8
LAYER2
62
2
10
5.548276155335
20
31.500000000000
11
5.548276155335
21
34.000000000000
0
LINE
8
LAYER2
62
2
10
5.548276155335
20
36.500000000000
11
5.548276155335
21
39.000000000000
0
LINE
8
LAYER2
62
2
10
5.548276155335
20
41.500000000000
11
5.548276155335
21
44.000000000000
0
LINE
8
LAYER2
62
2
10
5.548276155335
20
46.500000000000
11
5.548276155335
21
49.000000000000
0
LINE
8
LAYER2
62
2
10
5.548276155335
20
51.500000000000
11
5.548276155335
21
54.000000000000
0
LINE
8
LAYER2
62
2
10
5.548276155335
20
56.500000000000
11
5.548276155335
21
59.000000000000
0
LINE
8
LAYER2
62
2
10
5.548276155335
20
61.500000000000
11
5.548276155335
21
64.000000000000
0
LINE
8
LAYER2
62
2
10
5.548276155335
20
66.500000000000
11
5.548276155335
21
69.000000000000
0
LINE
8
LAYER2
62
2
10
5.548276155335
20
71.500000000000
11
5.548276155335
21
74.000000000000
0
LINE
8
LAYER2
62
2
10
5.548276155335
20
76.500000000000
11
5.548276155335
21
79.000000000000
0
LINE
8
LAYER2
62
2
10
5.548276155335
20
81.500000000000
11
5.548276155335
21
84.000000000000
0
LINE
8
LAYER2
62
2
10
5.548276155335
20
86.500000000000
11
5.548276155335
21
89.000000000000
0
LINE
8
LAYER2
62
2
10
5.548276155335
20
91.500000000000
11
5.548276155335
21
94.000000000000
0
LINE
8
LAYER2
62
2
10
7.548276155335
20
96.500000000000
11
7.548276155335
21
94.000000000000
0
LINE
8
LAYER2
62
2
10
7.548276155335
20
91.500000000000
11
7.548276155335
21
89.000000000000
0
LINE
8
LAYER2
62
2
10
7.548276155335
20
86.500000000000
11
7.548276155335
21
84.000000000000
0
LINE
8
LAYER2
62
2
10
7.548276155335
20
81.500000000000
11
7.548276155335
21
79.000000000000
0
LINE
8
LAYER2
62
2
10
7.548276155335
20
76.500000000000
11
7.548276155335
21
74.000000000000
0
LINE
8
LAYER2
62
2
10
7.548276155335
20
71.500000000000
11
7.548276155335
21
69.000000000000
0
LINE
8
LAYER2
62
2
10
7.548276155335
20
66.500000000000
11
7.548276155335
21
64.000000000000
0
LINE
8
LAYER2
62
2
10
7.548276155335
20
61.500000000000
11
7.548276155335
21
59.000000000000
0
LINE
8
LAYER2
62
2
10
7.548276155335
20
56.500000000000
11
7.548276155335
21
54.000000000000
0
LINE
8
LAYER2
62
2
10
7.548276155335
20
51.500000000000
11
7.548276155335
21
49.000000000000
0
LINE
8
LAYER2
62
2
10
7.548276155335
20
46.500000000000
11
7.548276155335
21
44.000000000000
0
LINE
8
LAYER2
62
2
10
7.548276155335
20
41.500000000000
11
7.548276155335
21
39.000000000000
0
LINE
8
LAYER2
62
2
10
7.548276155335
20
36.500000000000
11
7.548276155335
21
34.000000000000
0
LINE
8
LAYER2
62
2
10
7.548276155335
20
31.500000000000
11
7.548276155335
21
29.000000000000
0
LINE
8
LAYER2
62
2
10
7.548276155335
20
26.500000000000
11
7.548276155335
21
24.000000000000
0
LINE
8
LAYER2
62
2
10
7.548276155335
20
21.500000000000
11
5.548276155335
21
21.500000000000
0
LINE
8
LAYER2
62
2
10
5.548276155335
20
96.500000000000
11
7.548276155335
21
96.500000000000
0
LINE
8
LAYER2
62
2
10
30.548276155335
20
21.500000000000
11
30.548276155335
21
24.000000000000
0
LINE
8
LAYER2
62
2
10
30.548276155335
20
26.500000000000
11
30.548276155335
21
29.000000000000
0
LINE
8
LAYER2
62
2
10
30.548276155335
20
31.500000000000
11
30.548276155335
21
34.000000000000
0
LINE
8
LAYER2
62
2
10
30.548276155335
20
36.500000000000
11
30.548276155335
21
39.000000000000
0
LINE
8
LAYER2
62
2
10
30.548276155335
20
41.500000000000
11
30.548276155335
21
44.000000000000
0
LINE
8
LAYER2
62
2
10
30.548276155335
20
46.500000000000
11
30.548276155335
21
49.000000000000
0
LINE
8
LAYER2
62
2
10
30.548276155335
20
51.500000000000
11
30.548276155335
21
54.000000000000
0
LINE
8
LAYER2
62
2
10
30.548276155335
20
56.500000000000
11
30.548276155335
21
59.000000000000
0
LINE
8
LAYER2
62
2
10
30.548276155335
20
61.500000000000
11
30.548276155335
21
64.000000000000
0
LINE
8
LAYER2
62
2
10
30.548276155335
20
66.500000000000
11
30.548276155335
21
69.000000000000
0
LINE
8
LAYER2
62
2
10
30.548276155335
20
71.500000000000
11
30.548276155335
21
74.000000000000
0
LINE
8
LAYER2
62
2
10
30.548276155335
20
76.500000000000
11
30.548276155335
21
79.000000000000
0
LINE
8
LAYER2
62
2
10
30.548276155335
20
81.500000000000
11
30.548276155335
21
84.000000000000
0
LINE
8
LAYER2
62
2
10
30.548276155335
20
86.500000000000
11
30.548276155335
21
89.000000000000
0
LINE
8
LAYER2
62
2
10
30.548276155335
20
91.500000000000
11
30.548276155335
21
94.000000000000
0
LINE
8
LAYER2
62
2
10
32.548276155335
20
96.500000000000
11
32.548276155335
21
94.000000000000
0
LINE
8
LAYER2
62
2
10
32.548276155335
20
91.500000000000
11
32.548276155335
21
89.000000000000
0
LINE
8
LAYER2
62
2
10
32.548276155335
20
86.500000000000
11
32.548276155335
21
84.000000000000
0
LINE
8
LAYER2
62
2
10
32.548276155335
20
81.500000000000
11
32.548276155335
21
79.000000000000
0
LINE
8
LAYER2
62
2
10
32.548276155335
20
76.500000000000
11
32.548276155335
21
74.000000000000
0
LINE
8
LAYER2
62
2
10
32.548276155335
20
71.500000000000
11
32.548276155335
21
69.000000000000
0
LINE
8
LAYER2
62
2
10
32.548276155335
20
66.500000000000
11
32.548276155335
21
64.000000000000
0
LINE
8
LAYER2
62
2
10
32.548276155335
20
61.500000000000
11
32.548276155335
21
59.000000000000
0
LINE
8
LAYER2
62
2
10
32.548276155335
20
56.500000000000
11
32.548276155335
21
54.000000000000
0
LINE
8
LAYER2
62
2
10
32.548276155335
20
51.500000000000
11
32.548276155335
21
49.000000000000
0
LINE
8
LAYER2
62
2
10
32.548276155335
20
46.500000000000
11
32.548276155335
21
44.000000000000
0
LINE
8
LAYER2
62
2
10
32.548276155335
20
41.500000000000
11
32.548276155335
21
39.000000000000
0
LINE
8
LAYER2
62
2
10
32.548276155335
20
36.500000000000
11
32.548276155335
21
34.000000000000
0
LINE
8
LAYER2
62
2
10
32.548276155335
20
31.500000000000
11
32.548276155335
21
29.000000000000
0
LINE
8
LAYER2
62
2
10
32.548276155335
20
26.500000000000
11
32.548276155335
21
24.000000000000
0
LINE
8
LAYER2
62
2
10
32.548276155335
20
21.500000000000
11
30.548276155335
21
21.500000000000
0
LINE
8
LAYER2
62
2
10
30.548276155335
20
96.500000000000
11
32.548276155335
21
96.500000000000
0
LINE
8
LAYER2
62
2
10
55.548276155335
20
21.500000000000
11
55.548276155335
21
24.000000000000
0
LINE
8
LAYER2
62
2
10
55.548276155335
20
26.500000000000
11
55.548276155335
21
29.000000000000
0
LINE
8
LAYER2
62
2
10
55.548276155335
20
31.500000000000
11
55.548276155335
21
34.000000000000
0
LINE
8
LAYER2
62
2
10
55.548276155335
20
36.500000000000
11
55.548276155335
21
39.000000000000
0
LINE
8
LAYER2
62
2
10
55.548276155335
20
41.500000000000
11
55.548276155335
21
44.000000000000
0
LINE
8
LAYER2
62
2
10
55.548276155335
20
46.500000000000
11
55.548276155335
21
49.000000000000
0
LINE
8
LAYER2
62
2
10
55.548276155335
20
51.500000000000
11
55.548276155335
21
54.000000000000
0
LINE
8
LAYER2
62
2
10
55.548276155335
20
56.500000000000
11
55.548276155335
21
59.000000000000
0
LINE
8
LAYER2
62
2
10
55.548276155335
20
61.500000000000
11
55.548276155335
21
64.000000000000
0
LINE
8
LAYER2
62
2
10
55.548276155335
20
66.500000000000
11
55.548276155335
21
69.000000000000
0
LINE
8
LAYER2
62
2
10
55.548276155335
20
71.500000000000
11
55.548276155335
21
74.000000000000
0
LINE
8
LAYER2
62
2
10
55.548276155335
20
76.500000000000
11
55.548276155335
21
79.000000000000
0
LINE
8
LAYER2
62
2
10
55.548276155335
20
81.500000000000
11
55.548276155335
21
84.000000000000
0
LINE
8
LAYER2
62
2
10
55.548276155335
20
86.500000000000
11
55.548276155335
21
89.000000000000
0
LINE
8
LAYER2
62
2
10
55.548276155335
20
91.500000000000
11
55.548276155335
21
94.000000000000
0
LINE
8
LAYER2
62
2
10
57.548276155335
20
96.500000000000
11
57.548276155335
21
94.000000000000
0
LINE
8
LAYER2
62
2
10
57.548276155335
20
91.500000000000
11
57.548276155335
21
89.000000000000
0
LINE
8
LAYER2
62
2
10
57.548276155335
20
86.500000000000
11
57.548276155335
21
84.000000000000
0
LINE
8
LAYER2
62
2
10
57.548276155335
20
81.500000000000
11
57.548276155335
21
79.000000000000
0
LINE
8
LAYER2
62
2
10
57.548276155335
20
76.500000000000
11
57.548276155335
21
74.000000000000
0
LINE
8
LAYER2
62
2
10
57.548276155335
20
71.500000000000
11
57.548276155335
21
69.000000000000
0
LINE
8
LAYER2
62
2
10
57.548276155335
20
66.500000000000
11
57.548276155335
21
64.000000000000
0
LINE
8
LAYER2
62
2
10
57.548276155335
20
61.500000000000
11
57.548276155335
21
59.000000000000
0
LINE
8
LAYER2
62
2
10
57.548276155335
20
56.500000000000
11
57.548276155335
21
54.000000000000
0
LINE
8
LAYER2
62
2
10
57.548276155335
20
51.500000000000
11
57.548276155335
21
49.000000000000
0
LINE
8
LAYER2
62
2
10
57.548276155335
20
46.500000000000
11
57.548276155335
21
44.000000000000
0
LINE
8
LAYER2
62
2
10
57.548276155335
20
41.500000000000
11
57.548276155335
21
39.000000000000
0
LINE
8
LAYER2
62
2
10
57.548276155335
20
36.500000000000
11
57.548276155335
21
34.000000000000
0
LINE
8
LAYER2
62
2
10
57.548276155335
20
31.500000000000
11
57.548276155335
21
29.000000000000
0
LINE
8
LAYER2
62
2
10
57.548276155335
20
26.500000000000
11
57.548276155335
21
24.000000000000
0
LINE
8
LAYER2
62
2
10
57.548276155335
20
21.500000000000
11
55.548276155335
21
21.500000000000
0
LINE
8
LAYER2
62
2
10
55.548276155335
20
96.500000000000
11
57.548276155335
21
96.500000000000
0
LINE
8
LAYER2
62
2
10
80.548276155335
20
21.500000000000
11
80.548276155335
21
24.000000000000
0
LINE
8
LAYER2
62
2
10
80.548276155335
20
26.500000000000
11
80.548276155335
21
29.000000000000
0
LINE
8
LAYER2
62
2
10
80.548276155335
20
31.500000000000
11
80.548276155335
21
34.000000000000
0
LINE
8
LAYER2
62
2
10
80.548276155335
20
36.500000000000
11
80.548276155335
21
39.000000000000
0
LINE
8
LAYER2
62
2
10
80.548276155335
20
41.500000000000
11
80.548276155335
21
44.000000000000
0
LINE
8
LAYER2
62
2
10
80.548276155335
20
46.500000000000
11
80.548276155335
21
49.000000000000
0
LINE
8
LAYER2
62
2
10
80.548276155335
20
51.500000000000
11
80.548276155335
21
54.000000000000
0
LINE
8
LAYER2
62
2
10
80.548276155335
20
56.500000000000
11
80.548276155335
21
59.000000000000
0
LINE
8
LAYER2
62
2
10
80.548276155335
20
61.500000000000
11
80.548276155335
21
64.000000000000
0
LINE
8
LAYER2
62
2
10
80.548276155335
20
66.500000000000
11
80.548276155335
21
69.000000000000
0
LINE
8
LAYER2
62
2
10
80.548276155335
20
71.500000000000
11
80.548276155335
21
74.000000000000
0
LINE
8
LAYER2
62
2
10
80.548276155335
20
76.500000000000
11
80.548276155335
21
79.000000000000
0
LINE
8
LAYER2
62
2
10
80.548276155335
20
81.500000000000
11
80.548276155335
21
84.000000000000
0
LINE
8
LAYER2
62
2
10
80.548276155335
20
86.500000000000
11
80.548276155335
21
89.000000000000
0
LINE
8
LAYER2
62
2
10
80.548276155335
20
91.500000000000
11
80.548276155335
21
94.000000000000
0
LINE
8
LAYER2
62
2
10
82.548276155335
20
96.500000000000
11
82.548276155335
21
94.000000000000
0
LINE
8
LAYER2
62
2
10
82.548276155335
20
91.500000000000
11
82.548276155335
21
89.000000000000
0
LINE
8
LAYER2
62
2
10
82.548276155335
20
86.500000000000
11
82.548276155335
21
84.000000000000
0
LINE
8
LAYER2
62
2
10
82.548276155335
20
81.500000000000
11
82.548276155335
21
79.000000000000
0
LINE
8
LAYER2
62
2
10
82.548276155335
20
76.500000000000
11
82.548276155335
21
74.000000000000
0
LINE
8
LAYER2
62
2
10
82.548276155335
20
71.500000000000
11
82.548276155335
21
69.000000000000
0
LINE
8
LAYER2
62
2
10
82.548276155335
20
66.500000000000
11
82.548276155335
21
64.000000000000
0
LINE
8
LAYER2
62
2
10
82.548276155335
20
61.500000000000
11
82.548276155335
21
59.000000000000
0
LINE
8
LAYER2
62
2
10
82.548276155335
20
56.500000000000
11
82.548276155335
21
54.000000000000
0
LINE
8
LAYER2
62
2
10
82.548276155335
20
51.500000000000
11
82.548276155335
21
49.000000000000
0
LINE
8
LAYER2
62
2
10
82.548276155335
20
46.500000000000
11
82.548276155335
21
44.000000000000
0
LINE
8
LAYER2
62
2
10
82.548276155335
20
41.500000000000
11
82.548276155335
21
39.000000000000
0
LINE
8
LAYER2
62
2
10
82.548276155335
20
36.500000000000
11
82.548276155335
21
34.000000000000
0
LINE
8
LAYER2
62
2
10
82.548276155335
20
31.500000000000
11
82.548276155335
21
29.000000000000
0
LINE
8
LAYER2
62
2
10
82.548276155335
20
26.500000000000
11
82.548276155335
21
24.000000000000
0
LINE
8
LAYER2
62
2
10
82.548276155335
20
21.500000000000
11
80.548276155335
21
21.500000000000
0
LINE
8
LAYER2
62
2
10
80.548276155335
20
96.500000000000
11
82.548276155335
21
96.500000000000
0
LINE
8
LAYER2
62
2
10
105.548276155335
20
21.500000000000
11
105.548276155335
21
24.000000000000
0
LINE
8
LAYER2
62
2
10
105.548276155335
20
26.500000000000
11
105.548276155335
21
29.000000000000
0
LINE
8
LAYER2
62
2
10
105.548276155335
20
31.500000000000
11
105.548276155335
21
34.000000000000
0
LINE
8
LAYER2
62
2
10
105.548276155335
20
36.500000000000
11
105.548276155335
21
39.000000000000
0
LINE
8
LAYER2
62
2
10
105.548276155335
20
41.500000000000
11
105.548276155335
21
44.000000000000
0
LINE
8
LAYER2
62
2
10
105.548276155335
20
46.500000000000
11
105.548276155335
21
49.000000000000
0
LINE
8
LAYER2
62
2
10
105.548276155335
20
51.500000000000
11
105.548276155335
21
54.000000000000
0
LINE
8
LAYER2
62
2
10
105.548276155335
20
56.500000000000
11
105.548276155335
21
59.000000000000
0
LINE
8
LAYER2
62
2
10
105.548276155335
20
61.500000000000
11
105.548276155335
21
64.000000000000
0
LINE
8
LAYER2
62
2
10
105.548276155335
20
66.500000000000
11
105.548276155335
21
69.000000000000
0
LINE
8
LAYER2
62
2
10
105.548276155335
20
71.500000000000
11
105.548276155335
21
74.000000000000
0
LINE
8
LAYER2
62
2
10
105.548276155335
20
76.500000000000
11
105.548276155335
21
79.000000000000
0
LINE
8
LAYER2
62
2
10
105.548276155335
20
81.500000000000
11
105.548276155335
21
84.000000000000
0
LINE
8
LAYER2
62
2
10
105.548276155335
20
86.500000000000
11
105.548276155335
21
89.000000000000
0
LINE
8
LAYER2
62
2
10
105.548276155335
20
91.500000000000
11
105.548276155335
21
94.000000000000
0
LINE
8
LAYER2
62
2
10
107.548276155335
20
96.500000000000
11
107.548276155335
21
94.000000000000
0
LINE
8
LAYER2
62
2
10
107.548276155335
20
91.500000000000
11
107.548276155335
21
89.000000000000
0
LINE
8
LAYER2
62
2
10
107.548276155335
20
86.500000000000
11
107.548276155335
21
84.000000000000
0
LINE
8
LAYER2
62
2
10
107.548276155335
20
81.500000000000
11
107.548276155335
21
79.000000000000
0
LINE
8
LAYER2
62
2
10
107.548276155335
20
76.500000000000
11
107.548276155335
21
74.000000000000
0
LINE
8
LAYER2
62
2
10
107.548276155335
20
71.500000000000
11
107.548276155335
21
69.000000000000
0
LINE
8
LAYER2
62
2
10
107.548276155335
20
66.500000000000
11
107.548276155335
21
64.000000000000
0
LINE
8
LAYER2
62
2
10
107.548276155335
20
61.500000000000
11
107.548276155335
21
59.000000000000
0
LINE
8
LAYER2
62
2
10
107.548276155335
20
56.500000000000
11
107.548276155335
21
54.000000000000
0
LINE
8
LAYER2
62
2
10
107.548276155335
20
51.500000000000
11
107.548276155335
21
49.000000000000
0
LINE
8
LAYER2
62
2
10
107.548276155335
20
46.500000000000
11
107.548276155335
21
44.000000000000
0
LINE
8
LAYER2
62
2
10
107.548276155335
20
41.500000000000
11
107.548276155335
21
39.000000000000
0
LINE
8
LAYER2
62
2
10
107.548276155335
20
36.500000000000
11
107.548276155335
21
34.000000000000
0
LINE
8
LAYER2
62
2
10
107.548276155335
20
31.500000000000
11
107.548276155335
21
29.000000000000
0
LINE
8
LAYER2
62
2
10
107.548276155335
20
26.500000000000
11
107.548276155335
21
24.000000000000
0
LINE
8
LAYER2
62
2
10
107.548276155335
20
21.500000000000
11
105.548276155335
21
21.500000000000
0
LINE
8
LAYER2
62
2
10
105.548276155335
20
96.500000000000
11
107.548276155335
21
96.500000000000
0
LINE
8
LAYER2
62
2
10
130.548276155335
20
21.500000000000
11
130.548276155335
21
24.000000000000
0
LINE
8
LAYER2
62
2
10
130.548276155335
20
26.500000000000
11
130.548276155335
21
29.000000000000
0
LINE
8
LAYER2
62
2
10
130.548276155335
20
31.500000000000
11
130.548276155335
21
34.000000000000
0
LINE
8
LAYER2
62
2
10
130.548276155335
20
36.500000000000
11
130.548276155335
21
39.000000000000
0
LINE
8
LAYER2
62
2
10
130.548276155335
20
41.500000000000
11
130.548276155335
21
44.000000000000
0
LINE
8
LAYER2
62
2
10
130.548276155335
20
46.500000000000
11
130.548276155335
21
49.000000000000
0
LINE
8
LAYER2
62
2
10
130.548276155335
20
51.500000000000
11
130.548276155335
21
54.000000000000
0
LINE
8
LAYER2
62
2
10
130.548276155335
20
56.500000000000
11
130.548276155335
21
59.000000000000
0
LINE
8
LAYER2
62
2
10
130.548276155335
20
61.500000000000
11
130.548276155335
21
64.000000000000
0
LINE
8
LAYER2
62
2
10
130.548276155335
20
66.500000000000
11
130.548276155335
21
69.000000000000
0
LINE
8
LAYER2
62
2
10
130.548276155335
20
71.500000000000
11
130.548276155335
21
74.000000000000
0
LINE
8
LAYER2
62
2
10
130.548276155335
20
76.500000000000
11
130.548276155335
21
79.000000000000
0
LINE
8
LAYER2
62
2
10
130.548276155335
20
81.500000000000
11
130.548276155335
21
84.000000000000
0
LINE
8
LAYER2
62
2
10
130.548276155335
20
86.500000000000
11
130.548276155335
21
89.000000000000
0
LINE
8
LAYER2
62
2
10
130.548276155335
20
91.500000000000
11
130.548276155335
21
94.000000000000
0
LINE
8
LAYER2
62
2
10
132.548276155335
20
96.500000000000
11
132.548276155335
21
94.000000000000
0
LINE
8
LAYER2
62
2
10
132.548276155335
20
91.500000000000
11
132.548276155335
21
89.000000000000
0
LINE
8
LAYER2
62
2
10
132.548276155335
20
86.500000000000
11
132.548276155335
21
84.000000000000
0
LINE
8
LAYER2
62
2
10
132.548276155335
20
81.500000000000
11
132.548276155335
21
79.000000000000
0
LINE
8
LAYER2
62
2
10
132.548276155335
20
76.500000000000
11
132.548276155335
21
74.000000000000
0
LINE
8
LAYER2
62
2
10
132.548276155335
20
71.500000000000
11
132.548276155335
21
69.000000000000
0
LINE
8
LAYER2
62
2
10
132.548276155335
20
66.500000000000
11
132.548276155335
21
64.000000000000
0
LINE
8
LAYER2
62
2
10
132.548276155335
20
61.500000000000
11
132.548276155335
21
59.000000000000
0
LINE
8
LAYER2
62
2
10
132.548276155335
20
56.500000000000
11
132.548276155335
21
54.000000000000
0
LINE
8
LAYER2
62
2
10
132.548276155335
20
51.500000000000
11
132.548276155335
21
49.000000000000
0
LINE
8
LAYER2
62
2
10
132.548276155335
20
46.500000000000
11
132.548276155335
21
44.000000000000
0
LINE
8
LAYER2
62
2
10
132.548276155335
20
41.500000000000
11
132.548276155335
21
39.000000000000
0
LINE
8
LAYER2
62
2
10
132.548276155335
20
36.500000000000
11
132.548276155335
21
34.000000000000
0
LINE
8
LAYER2
62
2
10
132.548276155335
20
31.500000000000
11
132.548276155335
21
29.000000000000
0
LINE
8
LAYER2
62
2
10
132.548276155335
20
26.500000000000
11
132.548276155335
21
24.000000000000
0
LINE
8
LAYER2
62
2
10
132.548276155335
20
21.500000000000
11
130.548276155335
21
21.500000000000
0
LINE
8
LAYER2
62
2
10
130.548276155335
20
96.500000000000
11
132.548276155335
21
96.500000000000
0
LINE
8
LAYER2
62
2
10
155.548276155335
20
21.500000000000
11
155.548276155335
21
24.000000000000
0
LINE
8
LAYER2
62
2
10
155.548276155335
20
26.500000000000
11
155.548276155335
21
29.000000000000
0
LINE
8
LAYER2
62
2
10
155.548276155335
20
31.500000000000
11
155.548276155335
21
34.000000000000
0
LINE
8
LAYER2
62
2
10
155.548276155335
20
36.500000000000
11
155.548276155335
21
39.000000000000
0
LINE
8
LAYER2
62
2
10
155.548276155335
20
41.500000000000
11
155.548276155335
21
44.000000000000
0
LINE
8
LAYER2
62
2
10
155.548276155335
20
46.500000000000
11
155.548276155335
21
49.000000000000
0
LINE
8
LAYER2
62
2
10
155.548276155335
20
51.500000000000
11
155.548276155335
21
54.000000000000
0
LINE
8
LAYER2
62
2
10
155.548276155335
20
56.500000000000
11
155.548276155335
21
59.000000000000
0
LINE
8
LAYER2
62
2
10
155.548276155335
20
61.500000000000
11
155.548276155335
21
64.000000000000
0
LINE
8
LAYER2
62
2
10
155.548276155335
20
66.500000000000
11
155.548276155335
21
69.000000000000
0
LINE
8
LAYER2
62
2
10
155.548276155335
20
71.500000000000
11
155.548276155335
21
74.000000000000
0
LINE
8
LAYER2
62
2
10
155.548276155335
20
76.500000000000
11
155.548276155335
21
79.000000000000
0
LINE
8
LAYER2
62
2
10
155.548276155335
20
81.500000000000
11
155.548276155335
21
84.000000000000
0
LINE
8
LAYER2
62
2
10
155.548276155335
20
86.500000000000
11
155.548276155335
21
89.000000000000
0
LINE
8
LAYER2
62
2
10
155.548276155335
20
91.500000000000
11
155.548276155335
21
94.000000000000
0
LINE
8
LAYER2
62
2
10
157.548276155335
20
96.500000000000
11
157.548276155335
21
94.000000000000
0
LINE
8
LAYER2
62
2
10
157.548276155335
20
91.500000000000
11
157.548276155335
21
89.000000000000
0
LINE
8
LAYER2
62
2
10
157.548276155335
20
86.500000000000
11
157.548276155335
21
84.000000000000
0
LINE
8
LAYER2
62
2
10
157.548276155335
20
81.500000000000
11
157.548276155335
21
79.000000000000
0
LINE
8
LAYER2
62
2
10
157.548276155335
20
76.500000000000
11
157.548276155335
21
74.000000000000
0
LINE
8
LAYER2
62
2
10
157.548276155335
20
71.500000000000
11
157.548276155335
21
69.000000000000
0
LINE
8
LAYER2
62
2
10
157.548276155335
20
66.500000000000
11
157.548276155335
21
64.000000000000
0
LINE
8
LAYER2
62
2
10
157.548276155335
20
61.500000000000
11
157.548276155335
21
59.000000000000
0
LINE
8
LAYER2
62
2
10
157.548276155335
20
56.500000000000
11
157.548276155335
21
54.000000000000
0
LINE
8
LAYER2
62
2
10
157.548276155335
20
51.500000000000
11
157.548276155335
21
49.000000000000
0
LINE
8
LAYER2
62
2
10
157.548276155335
20
46.500000000000
11
157.548276155335
21
44.000000000000
0
LINE
8
LAYER2
62
2
10
157.548276155335
20
41.500000000000
11
157.548276155335
21
39.000000000000
0
LINE
8
LAYER2
62
2
10
157.548276155335
20
36.500000000000
11
157.548276155335
21
34.000000000000
0
LINE
8
LAYER2
62
2
10
157.548276155335
20
31.500000000000
11
157.548276155335
21
29.000000000000
0
LINE
8
LAYER2
62
2
10
157.548276155335
20
26.500000000000
11
157.548276155335
21
24.000000000000
0
LINE
8
LAYER2
62
2
10
157.548276155335
20
21.500000000000
11
155.548276155335
21
21.500000000000
0
LINE
8
LAYER2
62
2
10
155.548276155335
20
96.500000000000
11
157.548276155335
21
96.500000000000
0
LINE
8
LAYER2
62
2
10
180.548276155335
20
21.500000000000
11
180.548276155335
21
24.000000000000
0
LINE
8
LAYER2
62
2
10
180.548276155335
20
26.500000000000
11
180.548276155335
21
29.000000000000
0
LINE
8
LAYER2
62
2
10
180.548276155335
20
31.500000000000
11
180.548276155335
21
34.000000000000
0
LINE
8
LAYER2
62
2
10
180.548276155335
20
36.500000000000
11
180.548276155335
21
39.000000000000
0
LINE
8
LAYER2
62
2
10
180.548276155335
20
41.500000000000
11
180.548276155335
21
44.000000000000
0
LINE
8
LAYER2
62
2
10
180.548276155335
20
46.500000000000
11
180.548276155335
21
49.000000000000
0
LINE
8
LAYER2
62
2
10
180.548276155335
20
51.500000000000
11
180.548276155335
21
54.000000000000
0
LINE
8
LAYER2
62
2
10
180.548276155335
20
56.500000000000
11
180.548276155335
21
59.000000000000
0
LINE
8
LAYER2
62
2
10
180.548276155335
20
61.500000000000
11
180.548276155335
21
64.000000000000
0
LINE
8
LAYER2
62
2
10
180.548276155335
20
66.500000000000
11
180.548276155335
21
69.000000000000
0
LINE
8
LAYER2
62
2
10
180.548276155335
20
71.500000000000
11
180.548276155335
21
74.000000000000
0
LINE
8
LAYER2
62
2
10
180.548276155335
20
76.500000000000
11
180.548276155335
21
79.000000000000
0
LINE
8
LAYER2
62
2
10
180.548276155335
20
81.500000000000
11
180.548276155335
21
84.000000000000
0
LINE
8
LAYER2
62
2
10
180.548276155335
20
86.500000000000
11
180.548276155335
21
89.000000000000
0
LINE
8
LAYER2
62
2
10
180.548276155335
20
91.500000000000
11
180.548276155335
21
94.000000000000
0
LINE
8
LAYER2
62
2
10
182.548276155335
20
96.500000000000
11
182.548276155335
21
94.000000000000
0
LINE
8
LAYER2
62
2
10
182.548276155335
20
91.500000000000
11
182.548276155335
21
89.000000000000
0
LINE
8
LAYER2
62
2
10
182.548276155335
20
86.500000000000
11
182.548276155335
21
84.000000000000
0
LINE
8
LAYER2
62
2
10
182.548276155335
20
81.500000000000
11
182.548276155335
21
79.000000000000
0
LINE
8
LAYER2
62
2
10
182.548276155335
20
76.500000000000
11
182.548276155335
21
74.000000000000
0
LINE
8
LAYER2
62
2
10
182.548276155335
20
71.500000000000
11
182.548276155335
21
69.000000000000
0
LINE
8
LAYER2
62
2
10
182.548276155335
20
66.500000000000
11
182.548276155335
21
64.000000000000
0
LINE
8
LAYER2
62
2
10
182.548276155335
20
61.500000000000
11
182.548276155335
21
59.000000000000
0
LINE
8
LAYER2
62
2
10
182.548276155335
20
56.500000000000
11
182.548276155335
21
54.000000000000
0
LINE
8
LAYER2
62
2
10
182.548276155335
20
51.500000000000
11
182.548276155335
21
49.000000000000
0
LINE
8
LAYER2
62
2
10
182.548276155335
20
46.500000000000
11
182.548276155335
21
44.000000000000
0
LINE
8
LAYER2
62
2
10
182.548276155335
20
41.500000000000
11
182.548276155335
21
39.000000000000
0
LINE
8
LAYER2
62
2
10
182.548276155335
20
36.500000000000
11
182.548276155335
21
34.000000000000
0
LINE
8
LAYER2
62
2
10
182.548276155335
20
31.500000000000
11
182.548276155335
21
29.000000000000
0
LINE
8
LAYER2
62
2
10
182.548276155335
20
26.500000000000
11
182.548276155335
21
24.000000000000
0
LINE
8
LAYER2
62
2
10
182.548276155335
20
21.500000000000
11
180.548276155335
21
21.500000000000
0
LINE
8
LAYER2
62
2
10
180.548276155335
20
96.500000000000
11
182.548276155335
21
96.500000000000
0
LINE
8
LAYER2
62
2
10
205.548276155335
20
21.500000000000
11
205.548276155335
21
24.000000000000
0
LINE
8
LAYER2
62
2
10
205.548276155335
20
26.500000000000
11
205.548276155335
21
29.000000000000
0
LINE
8
LAYER2
62
2
10
205.548276155335
20
31.500000000000
11
205.548276155335
21
34.000000000000
0
LINE
8
LAYER2
62
2
10
205.548276155335
20
36.500000000000
11
205.548276155335
21
39.000000000000
0
LINE
8
LAYER2
62
2
10
205.548276155335
20
41.500000000000
11
205.548276155335
21
44.000000000000
0
LINE
8
LAYER2
62
2
10
205.548276155335
20
46.500000000000
11
205.548276155335
21
49.000000000000
0
LINE
8
LAYER2
62
2
10
205.548276155335
20
51.500000000000
11
205.548276155335
21
54.000000000000
0
LINE
8
LAYER2
62
2
10
205.548276155335
20
56.500000000000
11
205.548276155335
21
59.000000000000
0
LINE
8
LAYER2
62
2
10
205.548276155335
20
61.500000000000
11
205.548276155335
21
64.000000000000
0
LINE
8
LAYER2
62
2
10
205.548276155335
20
66.500000000000
11
205.548276155335
21
69.000000000000
0
LINE
8
LAYER2
62
2
10
205.548276155335
20
71.500000000000
11
205.548276155335
21
74.000000000000
0
LINE
8
LAYER2
62
2
10
205.548276155335
20
76.500000000000
11
205.548276155335
21
79.000000000000
0
LINE
8
LAYER2
62
2
10
205.548276155335
20
81.500000000000
11
205.548276155335
21
84.000000000000
0
LINE
8
LAYER2
62
2
10
205.548276155335
20
86.500000000000
11
205.548276155335
21
89.000000000000
0
LINE
8
LAYER2
62
2
10
205.548276155335
20
91.500000000000
11
205.548276155335
21
94.000000000000
0
LINE
8
LAYER2
62
2
10
207.548276155335
20
96.500000000000
11
207.548276155335
21
94.000000000000
0
LINE
8
LAYER2
62
2
10
207.548276155335
20
91.500000000000
11
207.548276155335
21
89.000000000000
0
LINE
8
LAYER2
62
2
10
207.548276155335
20
86.500000000000
11
207.548276155335
21
84.000000000000
0
LINE
8
LAYER2
62
2
10
207.548276155335
20
81.500000000000
11
207.548276155335
21
79.000000000000
0
LINE
8
LAYER2
62
2
10
207.548276155335
20
76.500000000000
11
207.548276155335
21
74.000000000000
0
LINE
8
LAYER2
62
2
10
207.548276155335
20
71.500000000000
11
207.548276155335
21
69.000000000000
0
LINE
8
LAYER2
62
2
10
207.548276155335
20
66.500000000000
11
207.548276155335
21
64.000000000000
0
LINE
8
LAYER2
62
2
10
207.548276155335
20
61.500000000000
11
207.548276155335
21
59.000000000000
0
LINE
8
LAYER2
62
2
10
207.548276155335
20
56.500000000000
11
207.548276155335
21
54.000000000000
0
LINE
8
LAYER2
62
2
10
207.548276155335
20
51.500000000000
11
207.548276155335
21
49.000000000000
0
LINE
8
LAYER2
62
2
10
207.548276155335
20
46.500000000000
11
207.548276155335
21
44.000000000000
0
LINE
8
LAYER2
62
2
10
207.548276155335
20
41.500000000000
11
207.548276155335
21
39.000000000000
0
LINE
8
LAYER2
62
2
10
207.548276155335
20
36.500000000000
11
207.548276155335
21
34.000000000000
0
LINE
8
LAYER2
62
2
10
207.548276155335
20
31.500000000000
11
207.548276155335
21
29.000000000000
0
LINE
8
LAYER2
62
2
10
207.548276155335
20
26.500000000000
11
207.548276155335
21
24.000000000000
0
LINE
8
LAYER2
62
2
10
207.548276155335
20
21.500000000000
11
205.548276155335
21
21.500000000000
0
LINE
8
LAYER2
62
2
10
205.548276155335
20
96.500000000000
11
207.548276155335
21
96.500000000000
0
LINE
8
LAYER2
62
2
10
230.548276155335
20
21.500000000000
11
230.548276155335
21
24.000000000000
0
LINE
8
LAYER2
62
2
10
230.548276155335
20
26.500000000000
11
230.548276155335
21
29.000000000000
0
LINE
8
LAYER2
62
2
10
230.548276155335
20
31.500000000000
11
230.548276155335
21
34.000000000000
0
LINE
8
LAYER2
62
2
10
230.548276155335
20
36.500000000000
11
230.548276155335
21
39.000000000000
0
LINE
8
LAYER2
62
2
10
230.548276155335
20
41.500000000000
11
230.548276155335
21
44.000000000000
0
LINE
8
LAYER2
62
2
10
230.548276155335
20
46.500000000000
11
230.548276155335
21
49.000000000000
0
LINE
8
LAYER2
62
2
10
230.548276155335
20
51.500000000000
11
230.548276155335
21
54.000000000000
0
LINE
8
LAYER2
62
2
10
230.548276155335
20
56.500000000000
11
230.548276155335
21
59.000000000000
0
LINE
8
LAYER2
62
2
10
230.548276155335
20
61.500000000000
11
230.548276155335
21
64.000000000000
0
LINE
8
LAYER2
62
2
10
230.548276155335
20
66.500000000000
11
230.548276155335
21
69.000000000000
0
LINE
8
LAYER2
62
2
10
230.548276155335
20
71.500000000000
11
230.548276155335
21
74.000000000000
0
LINE
8
LAYER2
62
2
10
230.548276155335
20
76.500000000000
11
230.548276155335
21
79.000000000000
0
LINE
8
LAYER2
62
2
10
230.548276155335
20
81.500000000000
11
230.548276155335
21
84.000000000000
0
LINE
8
LAYER2
62
2
10
230.548276155335
20
86.500000000000
11
230.548276155335
21
89.000000000000
0
LINE
8
LAYER2
62
2
10
230.548276155335
20
91.500000000000
11
230.548276155335
21
94.000000000000
0
LINE
8
LAYER2
62
2
10
232.548276155335
20
96.500000000000
11
232.548276155335
21
94.000000000000
0
LINE
8
LAYER2
62
2
10
232.548276155335
20
91.500000000000
11
232.548276155335
21
89.000000000000
0
LINE
8
LAYER2
62
2
10
232.548276155335
20
86.500000000000
11
232.548276155335
21
84.000000000000
0
LINE
8
LAYER2
62
2
10
232.548276155335
20
81.500000000000
11
232.548276155335
21
79.000000000000
0
LINE
8
LAYER2
62
2
10
232.548276155335
20
76.500000000000
11
232.548276155335
21
74.000000000000
0
LINE
8
LAYER2
62
2
10
232.548276155335
20
71.500000000000
11
232.548276155335
21
69.000000000000
0
LINE
8
LAYER2
62
2
10
232.548276155335
20
66.500000000000
11
232.548276155335
21
64.000000000000
0
LINE
8
LAYER2
62
2
10
232.548276155335
20
61.500000000000
11
232.548276155335
21
59.000000000000
0
LINE
8
LAYER2
62
2
10
232.548276155335
20
56.500000000000
11
232.548276155335
21
54.000000000000
0
LINE
8
LAYER2
62
2
10
232.548276155335
20
51.500000000000
11
232.548276155335
21
49.000000000000
0
LINE
8
LAYER2
62
2
10
232.548276155335
20
46.500000000000
11
232.548276155335
21
44.000000000000
0
LINE
8
LAYER2
62
2
10
232.548276155335
20
41.500000000000
11
232.548276155335
21
39.000000000000
0
LINE
8
LAYER2
62
2
10
232.548276155335
20
36.500000000000
11
232.548276155335
21
34.000000000000
0
LINE
8
LAYER2
62
2
10
232.548276155335
20
31.500000000000
11
232.548276155335
21
29.000000000000
0
LINE
8
LAYER2
62
2
10
232.548276155335
20
26.500000000000
11
232.548276155335
21
24.000000000000
0
LINE
8
LAYER2
62
2
10
232.548276155335
20
21.500000000000
11
230.548276155335
21
21.500000000000
0
LINE
8
LAYER2
62
2
10
230.548276155335
20
96.500000000000
11
232.548276155335
21
96.500000000000
0
LINE
8
LAYER2
62
2
10
255.548276155335
20
21.500000000000
11
255.548276155335
21
24.000000000000
0
LINE
8
LAYER2
62
2
10
255.548276155335
20
26.500000000000
11
255.548276155335
21
29.000000000000
0
LINE
8
LAYER2
62
2
10
255.548276155335
20
31.500000000000
11
255.548276155335
21
34.000000000000
0
LINE
8
LAYER2
62
2
10
255.548276155335
20
36.500000000000
11
255.548276155335
21
39.000000000000
0
LINE
8
LAYER2
62
2
10
255.548276155335
20
41.500000000000
11
255.548276155335
21
44.000000000000
0
LINE
8
LAYER2
62
2
10
255.548276155335
20
46.500000000000
11
255.548276155335
21
49.000000000000
0
LINE
8
LAYER2
62
2
10
255.548276155335
20
51.500000000000
11
255.548276155335
21
54.000000000000
0
LINE
8
LAYER2
62
2
10
255.548276155335
20
56.500000000000
11
255.548276155335
21
59.000000000000
0
LINE
8
LAYER2
62
2
10
255.548276155335
20
61.500000000000
11
255.548276155335
21
64.000000000000
0
LINE
8
LAYER2
62
2
10
255.548276155335
20
66.500000000000
11
255.548276155335
21
69.000000000000
0
LINE
8
LAYER2
62
2
10
255.548276155335
20
71.500000000000
11
255.548276155335
21
74.000000000000
0
LINE
8
LAYER2
62
2
10
255.548276155335
20
76.500000000000
11
255.548276155335
21
79.000000000000
0
LINE
8
LAYER2
62
2
10
255.548276155335
20
81.500000000000
11
255.548276155335
21
84.000000000000
0
LINE
8
LAYER2
62
2
10
255.548276155335
20
86.500000000000
11
255.548276155335
21
89.000000000000
0
LINE
8
LAYER2
62
2
10
255.548276155335
20
91.500000000000
11
255.548276155335
21
94.000000000000
0
LINE
8
LAYER2
62
2
10
257.548276155335
20
96.500000000000
11
257.548276155335
21
94.000000000000
0
LINE
8
LAYER2
62
2
10
257.548276155335
20
91.500000000000
11
257.548276155335
21
89.000000000000
0
LINE
8
LAYER2
62
2
10
257.548276155335
20
86.500000000000
11
257.548276155335
21
84.000000000000
0
LINE
8
LAYER2
62
2
10
257.548276155335
20
81.500000000000
11
257.548276155335
21
79.000000000000
0
LINE
8
LAYER2
62
2
10
257.548276155335
20
76.500000000000
11
257.548276155335
21
74.000000000000
0
LINE
8
LAYER2
62
2
10
257.548276155335
20
71.500000000000
11
257.548276155335
21
69.000000000000
0
LINE
8
LAYER2
62
2
10
257.548276155335
20
66.500000000000
11
257.548276155335
21
64.000000000000
0
LINE
8
LAYER2
62
2
10
257.548276155335
20
61.500000000000
11
257.548276155335
21
59.000000000000
0
LINE
8
LAYER2
62
2
10
257.548276155335
20
56.500000000000
11
257.548276155335
21
54.000000000000
0
LINE
8
LAYER2
62
2
10
257.548276155335
20
51.500000000000
11
257.548276155335
21
49.000000000000
0
LINE
8
LAYER2
62
2
10
257.548276155335
20
46.500000000000
11
257.548276155335
21
44.000000000000
0
LINE
8
LAYER2
62
2
10
257.548276155335
20
41.500000000000
11
257.548276155335
21
39.000000000000
0
LINE
8
LAYER2
62
2
10
257.548276155335
20
36.500000000000
11
257.548276155335
21
34.000000000000
0
LINE
8
LAYER2
62
2
10
257.548276155335
20
31.500000000000
11
257.548276155335
21
29.000000000000
0
LINE
8
LAYER2
62
2
10
257.548276155335
20
26.500000000000
11
257.548276155335
21
24.000000000000
0
LINE
8
LAYER2
62
2
10
257.548276155335
20
21.500000000000
11
255.548276155335
21
21.500000000000
0
LINE
8
LAYER2
62
2
10
255.548276155335
20
96.500000000000
11
257.548276155335
21
96.500000000000
0
LINE
8
LAYER2
62
2
10
280.548276155335
20
21.500000000000
11
280.548276155335
21
24.000000000000
0
LINE
8
LAYER2
62
2
10
280.548276155335
20
26.500000000000
11
280.548276155335
21
29.000000000000
0
LINE
8
LAYER2
62
2
10
280.548276155335
20
31.500000000000
11
280.548276155335
21
34.000000000000
0
LINE
8
LAYER2
62
2
10
280.548276155335
20
36.500000000000
11
280.548276155335
21
39.000000000000
0
LINE
8
LAYER2
62
2
10
280.548276155335
20
41.500000000000
11
280.548276155335
21
44.000000000000
0
LINE
8
LAYER2
62
2
10
280.548276155335
20
46.500000000000
11
280.548276155335
21
49.000000000000
0
LINE
8
LAYER2
62
2
10
280.548276155335
20
51.500000000000
11
280.548276155335
21
54.000000000000
0
LINE
8
LAYER2
62
2
10
280.548276155335
20
56.500000000000
11
280.548276155335
21
59.000000000000
0
LINE
8
LAYER2
62
2
10
280.548276155335
20
61.500000000000
11
280.548276155335
21
64.000000000000
0
LINE
8
LAYER2
62
2
10
280.548276155335
20
66.500000000000
11
280.548276155335
21
69.000000000000
0
LINE
8
LAYER2
62
2
10
280.548276155335
20
71.500000000000
11
280.548276155335
21
74.000000000000
0
LINE
8
LAYER2
62
2
10
280.548276155335
20
76.500000000000
11
280.548276155335
21
79.000000000000
0
LINE
8
LAYER2
62
2
10
280.548276155335
20
81.500000000000
11
280.548276155335
21
84.000000000000
0
LINE
8
LAYER2
62
2
10
280.548276155335
20
86.500000000000
11
280.548276155335
21
89.000000000000
0
LINE
8
LAYER2
62
2
10
280.548276155335
20
91.500000000000
11
280.548276155335
21
94.000000000000
0
LINE
8
LAYER2
62
2
10
282.548276155335
20
96.500000000000
11
282.548276155335
21
94.000000000000
0
LINE
8
LAYER2
62
2
10
282.548276155335
20
91.500000000000
11
282.548276155335
21
89.000000000000
0
LINE
8
LAYER2
62
2
10
282.548276155335
20
86.500000000000
11
282.548276155335
21
84.000000000000
0
LINE
8
LAYER2
62
2
10
282.548276155335
20
81.500000000000
11
282.548276155335
21
79.000000000000
0
LINE
8
LAYER2
62
2
10
282.548276155335
20
76.500000000000
11
282.548276155335
21
74.000000000000
0
LINE
8
LAYER2
62
2
10
282.548276155335
20
71.500000000000
11
282.548276155335
21
69.000000000000
0
LINE
8
LAYER2
62
2
10
282.548276155335
20
66.500000000000
11
282.548276155335
21
64.000000000000
0
LINE
8
LAYER2
62
2
10
282.548276155335
20
61.500000000000
11
282.548276155335
21
59.000000000000
0
LINE
8
LAYER2
62
2
10
282.548276155335
20
56.500000000000
11
282.548276155335
21
54.000000000000
0
LINE
8
LAYER2
62
2
10
282.548276155335
20
51.500000000000
11
282.548276155335
21
49.000000000000
0
LINE
8
LAYER2
62
2
10
282.548276155335
20
46.500000000000
11
282.548276155335
21
44.000000000000
0
LINE
8
LAYER2
62
2
10
282.548276155335
20
41.500000000000
11
282.548276155335
21
39.000000000000
0
LINE
8
LAYER2
62
2
10
282.548276155335
20
36.500000000000
11
282.548276155335
21
34.000000000000
0
LINE
8
LAYER2
62
2
10
282.548276155335
20
31.500000000000
11
282.548276155335
21
29.000000000000
0
LINE
8
LAYER2
62
2
10
282.548276155335
20
26.500000000000
11
282.548276155335
21
24.000000000000
0
LINE
8
LAYER2
62
2
10
282.548276155335
20
21.500000000000
11
280.548276155335
21
21.500000000000
0
LINE
8
LAYER2
62
2
10
280.548276155335
20
96.500000000000
11
282.548276155335
21
96.500000000000
0
LINE
8
LAYER2
62
2
10
291.517421096823
20
21.621025057572
11
292.407497094837
21
23.957210991474
0
LINE
8
LAYER2
62
2
10
293.297573092850
20
26.293396925376
11
294.187649090864
21
28.629582859278
0
LINE
8
LAYER2
62
2
10
295.077725088877
20
30.965768793179
11
295.967801086891
21
33.301954727081
0
LINE
8
LAYER2
62
2
10
296.857877084904
20
35.638140660983
11
297.747953082918
21
37.974326594885
0
LINE
8
LAYER2
62
2
10
298.638029080931
20
40.310512528786
11
299.528105078945
21
42.646698462688
0
LINE
8
LAYER2
62
2
10
300.418181076958
20
44.982884396590
11
301.308257074972
21
47.319070330491
0
LINE
8
LAYER2
62
2
10
302.198333072986
20
49.655256264393
11
303.088409070999
21
51.991442198295
0
LINE
8
LAYER2
62
2
10
303.978485069013
20
54.327628132197
11
304.868561067026
21
56.663814066098
0
LINE
8
LAYER2
62
2
10
305.758637065040
20
59.000000000000
11
306.648713063053
21
61.336185933902
0
LINE
8
LAYER2
62
2
10
307.538789061067
20
63.672371867803
11
308.428865059080
21
66.008557801705
0
LINE
8
LAYER2
62
2
10
309.318941057094
20
68.344743735607
11
310.209017055107
21
70.680929669509
0
LINE
8
LAYER2
62
2
10
311.099093053121
20
73.017115603410
11
311.989169051134
21
75.353301537312
0
LINE
8
LAYER2
62
2
10
312.879245049148
20
77.689487471214
11
313.769321047161
21
80.025673405115
0
LINE
8
LAYER2
62
2
10
314.659397045175
20
82.361859339017
11
315.549473043188
21
84.698045272919
0
LINE
8
LAYER2
62
2
10
316.439549041202
20
87.034231206821
11
317.329625039215
21
89.370417140722
0
LINE
8
LAYER2
62
2
10
318.219701037229
20
91.706603074624
11
319.109777035242
21
94.042789008526
0
LINE
8
LAYER2
62
2
10
321.868801780377
20
95.666914144017
11
320.978725782363
21
93.330728210115
0
LINE
8
LAYER2
62
2
10
320.088649784350
20
90.994542276213
11
319.198573786336
21
88.658356342312
0
LINE
8
LAYER2
62
2
10
318.308497788323
20
86.322170408410
11
317.418421790309
21
83.985984474508
0
LINE
8
LAYER2
62
2
10
316.528345792296
20
81.649798540606
11
315.638269794282
21
79.313612606705
0
LINE
8
LAYER2
62
2
10
314.748193796269
20
76.977426672803
11
313.858117798255
21
74.641240738901
0
LINE
8
LAYER2
62
2
10
312.968041800242
20
72.305054805000
11
312.077965802228
21
69.968868871098
0
LINE
8
LAYER2
62
2
10
311.187889804215
20
67.632682937196
11
310.297813806201
21
65.296497003294
0
LINE
8
LAYER2
62
2
10
309.407737808188
20
62.960311069393
11
308.517661810174
21
60.624125135491
0
LINE
8
LAYER2
62
2
10
307.627585812161
20
58.287939201589
11
306.737509814147
21
55.951753267688
0
LINE
8
LAYER2
62
2
10
305.847433816134
20
53.615567333786
11
304.957357818120
21
51.279381399884
0
LINE
8
LAYER2
62
2
10
304.067281820106
20
48.943195465982
11
303.177205822093
21
46.607009532081
0
LINE
8
LAYER2
62
2
10
302.287129824079
20
44.270823598179
11
301.397053826066
21
41.934637664277
0
LINE
8
LAYER2
62
2
10
300.506977828052
20
39.598451730375
11
299.616901830039
21
37.262265796474
0
LINE
8
LAYER2
62
2
10
298.726825832025
20
34.926079862572
11
297.836749834012
21
32.589893928670
0
LINE
8
LAYER2
62
2
10
296.946673835998
20
30.253707994769
11
296.056597837985
21
27.917522060867
0
LINE
8
LAYER2
62
2
10
295.166521839971
20
25.581336126965
11
294.276445841958
21
23.245150193063
0
LINE
8
LAYER2
62
2
10
293.386369843945
20
20.908964259162
11
291.517421096823
21
21.621025057572
0
LINE
8
LAYER2
62
2
10
319.999853033255
20
96.378974942428
11
321.868801780377
21
95.666914144017
0
LINE
8
LAYER2
62
2
10
295.898074347096
20
15.658507776490
11
297.629980058591
21
17.461422806792
0
LINE
8
LAYER2
62
2
10
299.361885770087
20
19.264337837093
11
301.093791481583
21
21.067252867395
0
LINE
8
LAYER2
62
2
10
302.825697193078
20
22.870167897697
11
304.557602904574
21
24.673082927999
0
LINE
8
LAYER2
62
2
10
306.289508616069
20
26.475997958301
11
308.021414327565
21
28.278912988603
0
LINE
8
LAYER2
62
2
10
309.753320039061
20
30.081828018905
11
311.485225750556
21
31.884743049207
0
LINE
8
LAYER2
62
2
10
313.217131462052
20
33.687658079509
11
314.949037173548
21
35.490573109811
0
LINE
8
LAYER2
62
2
10
316.680942885043
20
37.293488140113
11
318.412848596539
21
39.096403170415
0
LINE
8
LAYER2
62
2
10
320.144754308035
20
40.899318200717
11
321.876660019530
21
42.702233231019
0
LINE
8
LAYER2
62
2
10
323.608565731026
20
44.505148261321
11
325.340471442522
21
46.308063291623
0
LINE
8
LAYER2
62
2
10
327.072377154017
20
48.110978321925
11
328.804282865513
21
49.913893352227
0
LINE
8
LAYER2
62
2
10
330.536188577008
20
51.716808382529
11
332.268094288504
21
53.519723412831
0
LINE
8
LAYER2
62
2
10
334.000000000000
20
55.322638443133
11
335.731905711495
21
57.125553473435
0
LINE
8
LAYER2
62
2
10
337.463811422991
20
58.928468503737
11
339.195717134487
21
60.731383534039
0
LINE
8
LAYER2
62
2
10
340.927622845982
20
62.534298564341
11
342.659528557478
21
64.337213594643
0
LINE
8
LAYER2
62
2
10
344.391434268974
20
66.140128624945
11
346.123339980469
21
67.943043655247
0
LINE
8
LAYER2
62
2
10
347.855245691965
20
69.745958685549
11
349.587151403461
21
71.548873715851
0
LINE
8
LAYER2
62
2
10
351.319057114956
20
73.351788746152
11
353.050962826452
21
75.154703776454
0
LINE
8
LAYER2
62
2
10
354.782868537947
20
76.957618806756
11
356.514774249443
21
78.760533837058
0
LINE
8
LAYER2
62
2
10
358.246679960939
20
80.563448867360
11
359.978585672434
21
82.366363897662
0
LINE
8
LAYER2
62
2
10
361.710491383930
20
84.169278927964
11
363.442397095426
21
85.972193958266
0
LINE
8
LAYER2
62
2
10
365.174302806921
20
87.775108988568
11
366.906208518417
21
89.578024018870
0
LINE
8
LAYER2
62
2
10
368.638114229913
20
91.380939049172
11
370.370019941408
21
93.183854079474
0
LINE
8
LAYER2
62
2
10
373.544257677146
20
93.601244540580
11
371.812351965650
21
91.798329510278
0
LINE
8
LAYER2
62
2
10
370.080446254155
20
89.995414479976
11
368.348540542659
21
88.192499449674
0
LINE
8
LAYER2
62
2
10
366.616634831163
20
86.389584419372
11
364.884729119668
21
84.586669389070
0
LINE
8
LAYER2
62
2
10
363.152823408172
20
82.783754358768
11
361.420917696676
21
80.980839328466
0
LINE
8
LAYER2
62
2
10
359.689011985181
20
79.177924298164
11
357.957106273685
21
77.375009267862
0
LINE
8
LAYER2
62
2
10
356.225200562190
20
75.572094237560
11
354.493294850694
21
73.769179207258
0
LINE
8
LAYER2
62
2
10
352.761389139198
20
71.966264176956
11
351.029483427703
21
70.163349146654
0
LINE
8
LAYER2
62
2
10
349.297577716207
20
68.360434116352
11
347.565672004711
21
66.557519086050
0
LINE
8
LAYER2
62
2
10
345.833766293216
20
64.754604055748
11
344.101860581720
21
62.951689025446
0
LINE
8
LAYER2
62
2
10
342.369954870224
20
61.148773995144
11
340.638049158729
21
59.345858964842
0
LINE
8
LAYER2
62
2
10
338.906143447233
20
57.542943934540
11
337.174237735737
21
55.740028904238
0
LINE
8
LAYER2
62
2
10
335.442332024242
20
53.937113873936
11
333.710426312746
21
52.134198843634
0
LINE
8
LAYER2
62
2
10
331.978520601251
20
50.331283813332
11
330.246614889755
21
48.528368783030
0
LINE
8
LAYER2
62
2
10
328.514709178259
20
46.725453752729
11
326.782803466764
21
44.922538722427
0
LINE
8
LAYER2
62
2
10
325.050897755268
20
43.119623692125
11
323.318992043772
21
41.316708661823
0
LINE
8
LAYER2
62
2
10
321.587086332277
20
39.513793631521
11
319.855180620781
21
37.710878601219
0
LINE
8
LAYER2
62
2
10
318.123274909285
20
35.907963570917
11
316.391369197790
21
34.105048540615
0
LINE
8
LAYER2
62
2
10
314.659463486294
20
32.302133510313
11
312.927557774798
21
30.499218480011
0
LINE
8
LAYER2
62
2
10
311.195652063303
20
28.696303449709
11
309.463746351807
21
26.893388419407
0
LINE
8
LAYER2
62
2
10
307.731840640312
20
25.090473389105
11
305.999934928816
21
23.287558358803
0
LINE
8
LAYER2
62
2
10
304.268029217320
20
21.484643328501
11
302.536123505825
21
19.681728298199
0
LINE
8
LAYER2
62
2
10
300.804217794329
20
17.878813267897
11
299.072312082833
21
16.075898237595
0
LINE
8
LAYER2
62
2
10
297.340406371337
20
14.272983207293
11
295.898074347096
21
15.658507776490
0
LINE
8
LAYER2
62
2
10
372.101925652904
20
94.986769109776
11
373.544257677146
21
93.601244540580
0
LINE
8
LAYER2
62
2
10
296.306226764974
20
11.430657123292
11
298.662087592163
21
12.267269197623
0
LINE
8
LAYER2
62
2
10
301.017948419352
20
13.103881271953
11
303.373809246541
21
13.940493346284
0
LINE
8
LAYER2
62
2
10
305.729670073730
20
14.777105420614
11
308.085530900919
21
15.613717494945
0
LINE
8
LAYER2
62
2
10
310.441391728109
20
16.450329569275
11
312.797252555298
21
17.286941643606
0
LINE
8
LAYER2
62
2
10
315.153113382487
20
18.123553717937
11
317.508974209676
21
18.960165792267
0
LINE
8
LAYER2
62
2
10
319.864835036865
20
19.796777866598
11
322.220695864054
21
20.633389940928
0
LINE
8
LAYER2
62
2
10
324.576556691243
20
21.470002015259
11
326.932417518432
21
22.306614089590
0
LINE
8
LAYER2
62
2
10
329.288278345622
20
23.143226163920
11
331.644139172811
21
23.979838238251
0
LINE
8
LAYER2
62
2
10
334.000000000000
20
24.816450312581
11
336.355860827189
21
25.653062386912
0
LINE
8
LAYER2
62
2
10
338.711721654378
20
26.489674461242
11
341.067582481567
21
27.326286535573
0
LINE
8
LAYER2
62
2
10
343.423443308756
20
28.162898609904
11
345.779304135946
21
28.999510684234
0
LINE
8
LAYER2
62
2
10
348.135164963135
20
29.836122758565
11
350.491025790324
21
30.672734832895
0
LINE
8
LAYER2
62
2
10
352.846886617513
20
31.509346907226
11
355.202747444702
21
32.345958981556
0
LINE
8
LAYER2
62
2
10
357.558608271891
20
33.182571055887
11
359.914469099080
21
34.019183130218
0
LINE
8
LAYER2
62
2
10
362.270329926269
20
34.855795204548
11
364.626190753459
21
35.692407278879
0
LINE
8
LAYER2
62
2
10
366.982051580648
20
36.529019353209
11
369.337912407837
21
37.365631427540
0
LINE
8
LAYER2
62
2
10
372.363062894491
20
36.317554840119
11
370.007202067302
21
35.480942765789
0
LINE
8
LAYER2
62
2
10
367.651341240112
20
34.644330691458
11
365.295480412923
21
33.807718617127
0
LINE
8
LAYER2
62
2
10
362.939619585734
20
32.971106542797
11
360.583758758545
21
32.134494468466
0
LINE
8
LAYER2
62
2
10
358.227897931356
20
31.297882394136
11
355.872037104167
21
30.461270319805
0
LINE
8
LAYER2
62
2
10
353.516176276978
20
29.624658245475
11
351.160315449788
21
28.788046171144
0
LINE
8
LAYER2
62
2
10
348.804454622599
20
27.951434096813
11
346.448593795410
21
27.114822022483
0
LINE
8
LAYER2
62
2
10
344.092732968221
20
26.278209948152
11
341.736872141032
21
25.441597873822
0
LINE
8
LAYER2
62
2
10
339.381011313843
20
24.604985799491
11
337.025150486654
21
23.768373725161
0
LINE
8
LAYER2
62
2
10
334.669289659465
20
22.931761650830
11
332.313428832275
21
22.095149576499
0
LINE
8
LAYER2
62
2
10
329.957568005086
20
21.258537502169
11
327.601707177897
21
20.421925427838
0
LINE
8
LAYER2
62
2
10
325.245846350708
20
19.585313353508
11
322.889985523519
21
18.748701279177
0
LINE
8
LAYER2
62
2
10
320.534124696330
20
17.912089204847
11
318.178263869141
21
17.075477130516
0
LINE
8
LAYER2
62
2
10
315.822403041951
20
16.238865056185
11
313.466542214762
21
15.402252981855
0
LINE
8
LAYER2
62
2
10
311.110681387573
20
14.565640907524
11
308.754820560384
21
13.729028833194
0
LINE
8
LAYER2
62
2
10
306.398959733195
20
12.892416758863
11
304.043098906006
21
12.055804684532
0
LINE
8
LAYER2
62
2
10
301.687238078817
20
11.219192610202
11
299.331377251628
21
10.382580535871
0
LINE
8
LAYER2
62
2
10
296.975516424438
20
9.545968461541
11
296.306226764974
21
11.430657123292
0
LINE
8
LAYER2
62
2
10
371.693773235026
20
38.202243501871
11
372.363062894491
21
36.317554840119
0
LINE
8
LAYER3
62
3
10
375.500000000000
20
104.500000000000
11
379.500000000000
21
104.500000000000
0
LINE
8
LAYER3
62
3
10
379.500000000000
20
104.500000000000
11
379.500000000000
21
0.000000000000
0
LINE
8
LAYER3
62
3
10
379.500000000000
20
0.000000000000
11
375.500000000000
21
0.000000000000
0
LINE
8
LAYER3
62
3
10
375.500000000000
20
0.000000000000
11
375.500000000000
21
104.500000000000
0
LINE
8
LAYER3
62
3
10
1.548278808594
20
100.500000000000
11
1.548278808594
21
104.500000000000
0
LINE
8
LAYER3
62
3
10
1.548278808594
20
104.500000000000
11
379.500000000000
21
104.500000000000
0
LINE
8
LAYER3
62
3
10
379.500000000000
20
104.500000000000
11
379.500000000000
21
100.500000000000
0
LINE
8
LAYER3
62
3
10
379.500000000000
20
100.500000000000
11
1.548278808594
21
100.500000000000
0
LINE
8
LAYER3
62
3
10
288.500000000000
20
11.500000000000
11
292.500000000000
21
11.500000000000
0
LINE
8
LAYER3
62
3
10
292.500000000000
20
11.500000000000
11
292.500000000000
21
8.000000000000
0
LINE
8
LAYER3
62
3
10
292.500000000000
20
8.000000000000
11
288.500000000000
21
8.000000000000
0
LINE
8
LAYER3
62
3
10
288.500000000000
20
8.000000000000
11
288.500000000000
21
11.500000000000
0
LINE
8
LAYER3
62
3
10
9.548278808594
20
13.500000000000
11
9.548278808594
21
17.500000000000
0
LINE
8
LAYER3
62
3
10
9.548278808594
20
17.500000000000
11
286.500000000000
21
17.500000000000
0
LINE
8
LAYER3
62
3
10
286.500000000000
20
17.500000000000
11
286.500000000000
21
13.500000000000
0
LINE
8
LAYER3
62
3
10
286.500000000000
20
13.500000000000
11
9.548278808594
21
13.500000000000
0
LINE
8
LAYER4
62
4
10
286.500000000000
20
8.000000000000
11
294.500000000000
21
8.000000000000
0
LINE
8
LAYER4
62
4
10
294.500000000000
20
8.000000000000
11
294.500000000000
21
0.000000000000
0
LINE
8
LAYER4
62
4
10
294.500000000000
20
0.000000000000
11
286.500000000000
21
0.000000000000
0
LINE
8
LAYER4
62
4
10
286.500000000000
20
0.000000000000
11
286.500000000000
21
8.000000000000
0
LINE
8
LAYER4
62
4
10
286.500000000000
20
11.500000000000
11
286.500000000000
21
19.500000000000
0
LINE
8
LAYER4
62
4
10
286.500000000000
20
19.500000000000
11
294.500000000000
21
19.500000000000
0
LINE
8
LAYER4
62
4
10
294.500000000000
20
19.500000000000
11
294.500000000000
21
11.500000000000
0
LINE
8
LAYER4
62
4
10
294.500000000000
20
11.500000000000
11
286.500000000000
21
11.500000000000
0
LINE
8
LAYER4
62
4
10
1.548278808594
20
11.500000000000
11
1.548278808594
21
19.500000000000
0
LINE
8
LAYER4
62
4
10
1.548278808594
20
19.500000000000
11
9.548278808594
21
19.500000000000
0
LINE
8
LAYER4
62
4
10
9.548278808594
20
19.500000000000
11
9.548278808594
21
11.500000000000
0
LINE
8
LAYER4
62
4
10
9.548278808594
20
11.500000000000
11
1.548278808594
21
11.500000000000
0
LINE
8
LAYER4
62
4
10
144.024139404297
20
8.500000000000
11
144.024139404297
21
13.500000000000
0
LINE
8
LAYER4
62
4
10
144.024139404297
20
13.500000000000
11
152.024139404297
21
13.500000000000
0
LINE
8
LAYER4
62
4
10
152.024139404297
20
13.500000000000
11
152.024139404297
21
8.500000000000
0
LINE
8
LAYER4
62
4
10
152.024139404297
20
8.500000000000
11
144.024139404297
21
8.500000000000
0
LINE
8
LAYER5
62
5
10
372.000000000000
20
97.000000000000
11
376.000000000000
21
97.000000000000
0
LINE
8
LAYER5
62
5
10
376.000000000000
20
97.000000000000
11
376.000000000000
21
0.000000000000
0
LINE
8
LAYER5
62
5
10
376.000000000000
20
0.000000000000
11
372.000000000000
21
0.000000000000
0
LINE
8
LAYER5
62
5
10
372.000000000000
20
0.000000000000
11
372.000000000000
21
97.000000000000
0
LINE
8
LAYER5
62
5
10
1.548278808594
20
97.000000000000
11
1.548278808594
21
101.000000000000
0
LINE
8
LAYER5
62
5
10
1.548278808594
20
101.000000000000
11
376.500000000000
21
101.000000000000
0
LINE
8
LAYER5
62
5
10
376.500000000000
20
101.000000000000
11
376.500000000000
21
97.000000000000
0
LINE
8
LAYER5
62
5
10
376.500000000000
20
97.000000000000
11
1.548278808594
21
97.000000000000
0
LINE
8
LAYER5
62
5
10
288.500000000000
20
11.500000000000
11
292.500000000000
21
11.500000000000
0
LINE
8
LAYER5
62
5
10
292.500000000000
20
11.500000000000
11
292.500000000000
21
8.000000000000
0
LINE
8
LAYER5
62
5
10
292.500000000000
20
8.000000000000
11
288.500000000000
21
8.000000000000
0
LINE
8
LAYER5
62
5
10
288.500000000000
20
8.000000000000
11
288.500000000000
21
11.500000000000
0
LINE
8
LAYER5
62
5
10
9.548278808594
20
13.500000000000
11
9.548278808594
21
17.500000000000
0
LINE
8
LAYER5
62
5
10
9.548278808594
20
17.500000000000
11
286.500000000000
21
17.500000000000
0
LINE
8
LAYER5
62
5
10
286.500000000000
20
17.500000000000
11
286.500000000000
21
13.500000000000
0
LINE
8
LAYER5
62
5
10
286.500000000000
20
13.500000000000
11
9.548278808594
21
13.500000000000
0
CIRCLE
8
LAYER6
62
6
10
276.485343933105
20
15.500000000000
40
1.149999976158
0
CIRCLE
8
LAYER6
62
6
10
265.320686340332
20
15.500000000000
40
1.149999976158
0
CIRCLE
8
LAYER6
62
6
10
254.156036376953
20
15.500000000000
40
1.149999976158
0
CIRCLE
8
LAYER6
62
6
10
242.991378784180
20
15.500000000000
40
1.149999976158
0
CIRCLE
8
LAYER6
62
6
10
231.826721191406
20
15.500000000000
40
1.149999976158
0
CIRCLE
8
LAYER6
62
6
10
220.662063598633
20
15.500000000000
40
1.149999976158
0
CIRCLE
8
LAYER6
62
6
10
209.497421264648
20
15.500000000000
40
1.149999976158
0
CIRCLE
8
LAYER6
62
6
10
198.332763671875
20
15.500000000000
40
1.149999976158
0
CIRCLE
8
LAYER6
62
6
10
187.168106079102
20
15.500000000000
40
1.149999976158
0
CIRCLE
8
LAYER6
62
6
10
176.003448486328
20
15.500000000000
40
1.149999976158
0
CIRCLE
8
LAYER6
62
6
10
164.838790893555
20
15.500000000000
40
1.149999976158
0
CIRCLE
8
LAYER6
62
6
10
153.674133300781
20
15.500000000000
40
1.149999976158
0
CIRCLE
8
LAYER6
62
6
10
142.374145507812
20
15.500000000000
40
1.149999976158
0
CIRCLE
8
LAYER6
62
6
10
131.209487915039
20
15.500000000000
40
1.149999976158
0
CIRCLE
8
LAYER6
62
6
10
120.044830322266
20
15.500000000000
40
1.149999976158
0
CIRCLE
8
LAYER6
62
6
10
108.880157470703
20
15.500000000000
40
1.149999976158
0
CIRCLE
8
LAYER6
62
6
10
97.715515136719
20
15.500000000000
40
1.149999976158
0
CIRCLE
8
LAYER6
62
6
10
86.550872802734
20
15.500000000000
40
1.149999976158
0
CIRCLE
8
LAYER6
62
6
10
75.386199951172
20
15.500000000000
40
1.149999976158
0
CIRCLE
8
LAYER6
62
6
10
64.221557617188
20
15.500000000000
40
1.149999976158
0
CIRCLE
8
LAYER6
62
6
10
53.056884765625
20
15.500000000000
40
1.149999976158
0
CIRCLE
8
LAYER6
62
6
10
41.892242431641
20
15.500000000000
40
1.149999976158
0
CIRCLE
8
LAYER6
62
6
10
30.727600097656
20
15.500000000000
40
1.149999976158
0
CIRCLE
8
LAYER6
62
6
10
19.562927246094
20
15.500000000000
40
1.149999976158
0
LINE
8
LAYER7
62
7
10
380.000000000000
20
105.000000000000
11
380.000000000000
21
0.000000000000
0
LINE
8
LAYER7
62
7
10
380.000000000000
20
0.000000000000
11
0.000000000000
21
0.000000000000
0
LINE
8
LAYER7
62
7
10
0.000000000000
20
0.000000000000
11
0.000000000000
21
105.000000000000
0
LINE
8
LAYER7
62
7
10
0.000000000000
20
105.000000000000
11
380.000000000000
21
105.000000000000
0
LINE
8
LAYER9
62
8
10
2.548278808594
20
59.000000000000
11
309.000000000000
21
59.000000000000
0
ARC
8
LAYER9
62
8
10
309.000000000000
20
34.000000000000
40
25.000000000000
50
0.000000000000
51
90.000000000000
0
LINE
8
LAYER9
62
8
10
334.000000000000
20
34.000000000000
11
334.000000000000
21
0.000000000000
0
LINE
8
LAYER14
62
8
10
16.773276155335
20
75.400000000000
11
17.110776155335
21
76.000000000000
0
LINE
8
LAYER14
62
8
10
17.110776155335
20
76.000000000000
11
17.110776155335
21
74.000000000000
0
LINE
8
LAYER14
62
8
10
16.885776155335
20
74.000000000000
11
17.335776155335
21
74.000000000000
0
LINE
8
LAYER14
62
8
10
41.548276155335
20
75.700000000000
11
41.717026155335
21
76.000000000000
0
LINE
8
LAYER14
62
8
10
41.717026155335
20
76.000000000000
11
42.504526155335
21
76.000000000000
0
LINE
8
LAYER14
62
8
10
42.504526155335
20
76.000000000000
11
42.673276155335
21
75.700000000000
0
LINE
8
LAYER14
62
8
10
42.673276155335
20
75.700000000000
11
42.673276155335
21
75.400000000000
0
LINE
8
LAYER14
62
8
10
42.673276155335
20
75.400000000000
11
41.548276155335
21
74.300000000000
0
LINE
8
LAYER14
62
8
10
41.548276155335
20
74.300000000000
11
41.548276155335
21
74.000000000000
0
LINE
8
LAYER14
62
8
10
41.548276155335
20
74.000000000000
11
42.673276155335
21
74.000000000000
0
LINE
8
LAYER14
62
8
10
42.673276155335
20
74.000000000000
11
42.673276155335
21
74.300000000000
0
LINE
8
LAYER14
62
8
10
66.548276155335
20
75.800000000000
11
66.660776155335
21
76.000000000000
0
LINE
8
LAYER14
62
8
10
66.660776155335
20
76.000000000000
11
67.560776155335
21
76.000000000000
0
LINE
8
LAYER14
62
8
10
67.560776155335
20
76.000000000000
11
67.673276155335
21
75.800000000000
0
LINE
8
LAYER14
62
8
10
67.673276155335
20
75.800000000000
11
67.673276155335
21
75.400000000000
0
LINE
8
LAYER14
62
8
10
67.673276155335
20
75.400000000000
11
67.560776155335
21
75.200000000000
0
LINE
8
LAYER14
62
8
10
67.560776155335
20
75.200000000000
11
66.885776155335
21
75.200000000000
0
LINE
8
LAYER14
62
8
10
67.560776155335
20
75.200000000000
11
67.673276155335
21
75.000000000000
0
LINE
8
LAYER14
62
8
10
67.673276155335
20
75.000000000000
11
67.673276155335
21
74.200000000000
0
LINE
8
LAYER14
62
8
10
67.673276155335
20
74.200000000000
11
67.560776155335
21
74.000000000000
0
LINE
8
LAYER14
62
8
10
67.560776155335
20
74.000000000000
11
66.660776155335
21
74.000000000000
0
LINE
8
LAYER14
62
8
10
66.660776155335
20
74.000000000000
11
66.548276155335
21
74.200000000000
0
LINE
8
LAYER14
62
8
10
91.548276155335
20
76.000000000000
11
91.548276155335
21
75.200000000000
0
LINE
8
LAYER14
62
8
10
91.548276155335
20
75.200000000000
11
92.673276155335
21
75.200000000000
0
LINE
8
LAYER14
62
8
10
92.673276155335
20
76.000000000000
11
92.673276155335
21
74.000000000000
0
LINE
8
LAYER14
62
8
10
117.673276155335
20
76.000000000000
11
116.548276155335
21
76.000000000000
0
LINE
8
LAYER14
62
8
10
116.548276155335
20
76.000000000000
11
116.548276155335
21
75.200000000000
0
LINE
8
LAYER14
62
8
10
116.548276155335
20
75.200000000000
11
117.504526155335
21
75.200000000000
0
LINE
8
LAYER14
62
8
10
117.504526155335
20
75.200000000000
11
117.673276155335
21
74.900000000000
0
LINE
8
LAYER14
62
8
10
117.673276155335
20
74.900000000000
11
117.673276155335
21
74.300000000000
0
LINE
8
LAYER14
62
8
10
117.673276155335
20
74.300000000000
11
117.504526155335
21
74.000000000000
0
LINE
8
LAYER14
62
8
10
117.504526155335
20
74.000000000000
11
116.717026155335
21
74.000000000000
0
LINE
8
LAYER14
62
8
10
116.717026155335
20
74.000000000000
11
116.548276155335
21
74.300000000000
0
LINE
8
LAYER14
62
8
10
142.673276155335
20
76.000000000000
11
142.504526155335
21
76.000000000000
0
LINE
8
LAYER14
62
8
10
142.504526155335
20
76.000000000000
11
141.548276155335
21
75.500000000000
0
LINE
8
LAYER14
62
8
10
141.548276155335
20
75.500000000000
11
141.548276155335
21
74.300000000000
0
LINE
8
LAYER14
62
8
10
141.548276155335
20
74.300000000000
11
141.717026155335
21
74.000000000000
0
LINE
8
LAYER14
62
8
10
141.717026155335
20
74.000000000000
11
142.504526155335
21
74.000000000000
0
LINE
8
LAYER14
62
8
10
142.504526155335
20
74.000000000000
11
142.673276155335
21
74.300000000000
0
LINE
8
LAYER14
62
8
10
142.673276155335
20
74.300000000000
11
142.673276155335
21
74.900000000000
0
LINE
8
LAYER14
62
8
10
142.673276155335
20
74.900000000000
11
142.504526155335
21
75.200000000000
0
LINE
8
LAYER14
62
8
10
142.504526155335
20
75.200000000000
11
141.548276155335
21
75.200000000000
0
LINE
8
LAYER14
62
8
10
166.548276155335
20
75.700000000000
11
166.548276155335
21
76.000000000000
0
LINE
8
LAYER14
62
8
10
166.548276155335
20
76.000000000000
11
167.673276155335
21
76.000000000000
0
LINE
8
LAYER14
62
8
10
167.673276155335
20
76.000000000000
11
167.673276155335
21
75.300000000000
0
LINE
8
LAYER14
62
8
10
167.673276155335
20
75.300000000000
11
167.110776155335
21
74.800000000000
0
LINE
8
LAYER14
62
8
10
167.110776155335
20
74.800000000000
11
167.110776155335
21
74.000000000000
0
LINE
8
LAYER14
62
8
10
191.717026155335
20
74.000000000000
11
191.548276155335
21
74.300000000000
0
LINE
8
LAYER14
62
8
10
191.548276155335
20
74.300000000000
11
191.548276155335
21
74.700000000000
0
LINE
8
LAYER14
62
8
10
191.548276155335
20
74.700000000000
11
191.717026155335
21
75.000000000000
0
LINE
8
LAYER14
62
8
10
191.717026155335
20
75.000000000000
11
192.504526155335
21
75.000000000000
0
LINE
8
LAYER14
62
8
10
192.504526155335
20
75.000000000000
11
192.673276155335
21
74.700000000000
0
LINE
8
LAYER14
62
8
10
192.673276155335
20
74.700000000000
11
192.673276155335
21
74.300000000000
0
LINE
8
LAYER14
62
8
10
192.673276155335
20
74.300000000000
11
192.504526155335
21
74.000000000000
0
LINE
8
LAYER14
62
8
10
192.504526155335
20
74.000000000000
11
191.717026155335
21
74.000000000000
0
LINE
8
LAYER14
62
8
10
191.717026155335
20
75.000000000000
11
191.548276155335
21
75.300000000000
0
LINE
8
LAYER14
62
8
10
191.548276155335
20
75.300000000000
11
191.548276155335
21
75.700000000000
0
LINE
8
LAYER14
62
8
10
191.548276155335
20
75.700000000000
11
191.717026155335
21
76.000000000000
0
LINE
8
LAYER14
62
8
10
191.717026155335
20
76.000000000000
11
192.504526155335
21
76.000000000000
0
LINE
8
LAYER14
62
8
10
192.504526155335
20
76.000000000000
11
192.673276155335
21
75.700000000000
0
LINE
8
LAYER14
62
8
10
192.673276155335
20
75.700000000000
11
192.673276155335
21
75.300000000000
0
LINE
8
LAYER14
62
8
10
192.673276155335
20
75.300000000000
11
192.504526155335
21
75.000000000000
0
LINE
8
LAYER14
62
8
10
216.548276155335
20
74.300000000000
11
216.717026155335
21
74.000000000000
0
LINE
8
LAYER14
62
8
10
216.717026155335
20
74.000000000000
11
217.504526155335
21
74.000000000000
0
LINE
8
LAYER14
62
8
10
217.504526155335
20
74.000000000000
11
217.673276155335
21
74.300000000000
0
LINE
8
LAYER14
62
8
10
217.673276155335
20
74.300000000000
11
217.673276155335
21
75.700000000000
0
LINE
8
LAYER14
62
8
10
217.673276155335
20
75.700000000000
11
217.504526155335
21
76.000000000000
0
LINE
8
LAYER14
62
8
10
217.504526155335
20
76.000000000000
11
216.717026155335
21
76.000000000000
0
LINE
8
LAYER14
62
8
10
216.717026155335
20
76.000000000000
11
216.548276155335
21
75.700000000000
0
LINE
8
LAYER14
62
8
10
216.548276155335
20
75.700000000000
11
216.548276155335
21
75.300000000000
0
LINE
8
LAYER14
62
8
10
216.548276155335
20
75.300000000000
11
216.717026155335
21
75.000000000000
0
LINE
8
LAYER14
62
8
10
216.717026155335
20
75.000000000000
11
217.673276155335
21
75.000000000000
0
LINE
8
LAYER14
62
8
10
241.773276155335
20
75.400000000000
11
242.110776155335
21
76.000000000000
0
LINE
8
LAYER14
62
8
10
242.110776155335
20
76.000000000000
11
242.110776155335
21
74.000000000000
0
LINE
8
LAYER14
62
8
10
241.885776155335
20
74.000000000000
11
242.335776155335
21
74.000000000000
0
LINE
8
LAYER14
62
8
10
243.329526155335
20
74.000000000000
11
243.892026155335
21
74.000000000000
0
LINE
8
LAYER14
62
8
10
243.892026155335
20
74.000000000000
11
244.173276155335
21
74.500000000000
0
LINE
8
LAYER14
62
8
10
244.173276155335
20
74.500000000000
11
244.173276155335
21
75.500000000000
0
LINE
8
LAYER14
62
8
10
244.173276155335
20
75.500000000000
11
243.892026155335
21
76.000000000000
0
LINE
8
LAYER14
62
8
10
243.892026155335
20
76.000000000000
11
243.329526155335
21
76.000000000000
0
LINE
8
LAYER14
62
8
10
243.329526155335
20
76.000000000000
11
243.048276155335
21
75.500000000000
0
LINE
8
LAYER14
62
8
10
243.048276155335
20
75.500000000000
11
243.048276155335
21
74.500000000000
0
LINE
8
LAYER14
62
8
10
243.048276155335
20
74.500000000000
11
243.329526155335
21
74.000000000000
0
LINE
8
LAYER14
62
8
10
266.773276155335
20
75.400000000000
11
267.110776155335
21
76.000000000000
0
LINE
8
LAYER14
62
8
10
267.110776155335
20
76.000000000000
11
267.110776155335
21
74.000000000000
0
LINE
8
LAYER14
62
8
10
266.885776155335
20
74.000000000000
11
267.335776155335
21
74.000000000000
0
LINE
8
LAYER14
62
8
10
268.273276155335
20
75.400000000000
11
268.610776155335
21
76.000000000000
0
LINE
8
LAYER14
62
8
10
268.610776155335
20
76.000000000000
11
268.610776155335
21
74.000000000000
0
LINE
8
LAYER14
62
8
10
268.385776155335
20
74.000000000000
11
268.835776155335
21
74.000000000000
0
LINE
8
LAYER14
62
8
10
291.878456610187
20
75.400000000000
11
292.215956610187
21
76.000000000000
0
LINE
8
LAYER14
62
8
10
292.215956610187
20
76.000000000000
11
292.215956610187
21
74.000000000000
0
LINE
8
LAYER14
62
8
10
291.990956610187
20
74.000000000000
11
292.440956610187
21
74.000000000000
0
LINE
8
LAYER14
62
8
10
293.153456610187
20
75.700000000000
11
293.322206610187
21
76.000000000000
0
LINE
8
LAYER14
62
8
10
293.322206610187
20
76.000000000000
11
294.109706610187
21
76.000000000000
0
LINE
8
LAYER14
62
8
10
294.109706610187
20
76.000000000000
11
294.278456610187
21
75.700000000000
0
LINE
8
LAYER14
62
8
10
294.278456610187
20
75.700000000000
11
294.278456610187
21
75.400000000000
0
LINE
8
LAYER14
62
8
10
294.278456610187
20
75.400000000000
11
293.153456610187
21
74.300000000000
0
LINE
8
LAYER14
62
8
10
293.153456610187
20
74.300000000000
11
293.153456610187
21
74.000000000000
0
LINE
8
LAYER14
62
8
10
293.153456610187
20
74.000000000000
11
294.278456610187
21
74.000000000000
0
LINE
8
LAYER14
62
8
10
294.278456610187
20
74.000000000000
11
294.278456610187
21
74.300000000000
0
LINE
8
LAYER14
62
8
10
321.768171463603
20
73.382480825173
11
322.105671463603
21
73.982480825173
0
LINE
8
LAYER14
62
8
10
322.105671463603
20
73.982480825173
11
322.105671463603
21
71.982480825173
0
LINE
8
LAYER14
62
8
10
321.880671463603
20
71.982480825173
11
322.330671463603
21
71.982480825173
0
LINE
8
LAYER14
62
8
10
323.043171463603
20
73.782480825173
11
323.155671463603
21
73.982480825173
0
LINE
8
LAYER14
62
8
10
323.155671463603
20
73.982480825173
11
324.055671463603
21
73.982480825173
0
LINE
8
LAYER14
62
8
10
324.055671463603
20
73.982480825173
11
324.168171463603
21
73.782480825173
0
LINE
8
LAYER14
62
8
10
324.168171463603
20
73.782480825173
11
324.168171463603
21
73.382480825173
0
LINE
8
LAYER14
62
8
10
324.168171463603
20
73.382480825173
11
324.055671463603
21
73.182480825173
0
LINE
8
LAYER14
62
8
10
324.055671463603
20
73.182480825173
11
323.380671463603
21
73.182480825173
0
LINE
8
LAYER14
62
8
10
324.055671463603
20
73.182480825173
11
324.168171463603
21
72.982480825173
0
LINE
8
LAYER14
62
8
10
324.168171463603
20
72.982480825173
11
324.168171463603
21
72.182480825173
0
LINE
8
LAYER14
62
8
10
324.168171463603
20
72.182480825173
11
324.055671463603
21
71.982480825173
0
LINE
8
LAYER14
62
8
10
324.055671463603
20
71.982480825173
11
323.155671463603
21
71.982480825173
0
LINE
8
LAYER14
62
8
10
323.155671463603
20
71.982480825173
11
323.043171463603
21
72.182480825173
0
LINE
8
LAYER14
62
8
10
348.313264066489
20
43.891620120355
11
348.650764066489
21
44.491620120355
0
LINE
8
LAYER14
62
8
10
348.650764066489
20
44.491620120355
11
348.650764066489
21
42.491620120355
0
LINE
8
LAYER14
62
8
10
348.425764066489
20
42.491620120355
11
348.875764066489
21
42.491620120355
0
LINE
8
LAYER14
62
8
10
349.588264066489
20
44.491620120355
11
349.588264066489
21
43.691620120355
0
LINE
8
LAYER14
62
8
10
349.588264066489
20
43.691620120355
11
350.713264066489
21
43.691620120355
0
LINE
8
LAYER14
62
8
10
350.713264066489
20
44.491620120355
11
350.713264066489
21
42.491620120355
0
LINE
8
LAYER14
62
8
10
349.225000000000
20
15.400000000000
11
349.562500000000
21
16.000000000000
0
LINE
8
LAYER14
62
8
10
349.562500000000
20
16.000000000000
11
349.562500000000
21
14.000000000000
0
LINE
8
LAYER14
62
8
10
349.337500000000
20
14.000000000000
11
349.787500000000
21
14.000000000000
0
LINE
8
LAYER14
62
8
10
351.625000000000
20
16.000000000000
11
350.500000000000
21
16.000000000000
0
LINE
8
LAYER14
62
8
10
350.500000000000
20
16.000000000000
11
350.500000000000
21
15.200000000000
0
LINE
8
LAYER14
62
8
10
350.500000000000
20
15.200000000000
11
351.456250000000
21
15.200000000000
0
LINE
8
LAYER14
62
8
10
351.456250000000
20
15.200000000000
11
351.625000000000
21
14.900000000000
0
LINE
8
LAYER14
62
8
10
351.625000000000
20
14.900000000000
11
351.625000000000
21
14.300000000000
0
LINE
8
LAYER14
62
8
10
351.625000000000
20
14.300000000000
11
351.456250000000
21
14.000000000000
0
LINE
8
LAYER14
62
8
10
351.456250000000
20
14.000000000000
11
350.668750000000
21
14.000000000000
0
LINE
8
LAYER14
62
8
10
350.668750000000
20
14.000000000000
11
350.500000000000
21
14.300000000000
0
LINE
8
LAYER15
62
8
10
0.000000000000
20
105.000000000000
11
380.000000000000
21
105.000000000000
0
LINE
8
LAYER15
62
8
10
380.000000000000
20
105.000000000000
11
390.000000000000
21
115.000000000000
0
LINE
8
LAYER15
62
8
10
390.000000000000
20
115.000000000000
11
0.000000000000
21
115.000000000000
0
LINE
8
LAYER15
62
8
10
0.000000000000
20
115.000000000000
11
0.000000000000
21
105.000000000000
0
LINE
8
LAYER15
62
8
10
380.000000000000
20
105.000000000000
11
380.000000000000
21
0.000000000000
0
LINE
8
LAYER15
62
8
10
380.000000000000
20
0.000000000000
11
390.000000000000
21
0.000000000000
0
LINE
8
LAYER15
62
8
10
390.000000000000
20
0.000000000000
11
390.000000000000
21
115.000000000000
0
LINE
8
LAYER15
62
8
10
390.000000000000
20
115.000000000000
11
380.000000000000
21
105.000000000000
0
ENDSEC
0
EOF
