0
SECTION
2
HEADER
0
ENDSEC
0
SECTION
2
TABLES
0
TABLE
2
LTYPE
70
1
0
LTYPE
2
CONTINUOUS
70
64
3
Solid line
72
65
73
0
40
0
0
ENDTAB
0
TABLE
2
LAYER
70
20
0
LAYER
2
COMPASS
70
0
62
1
6
CONTINUOUS
0
LAYER
2
LAYER1
70
0
62
1
6
CONTINUOUS
0
LAYER
2
LAYER2
70
0
62
1
6
CONTINUOUS
0
LAYER
2
LAYER3
70
0
62
1
6
CONTINUOUS
0
LAYER
2
LAYER4
70
0
62
1
6
CONTINUOUS
0
LAYER
2
LAYER5
70
0
62
1
6
CONTINUOUS
0
LAYER
2
LAYER6
70
0
62
1
6
CONTINUOUS
0
LAYER
2
LAYER7
70
0
62
1
6
CONTINUOUS
0
LAYER
2
LAYER8
70
0
62
1
6
CONTINUOUS
0
LAYER
2
LAYER9
70
0
62
1
6
CONTINUOUS
0
LAYER
2
LAYER10
70
0
62
1
6
CONTINUOUS
0
LAYER
2
LAYER11
70
0
62
1
6
CONTINUOUS
0
LAYER
2
LAYER12
70
0
62
1
6
CONTINUOUS
0
LAYER
2
LAYER13
70
0
62
1
6
CONTINUOUS
0
LAYER
2
LAYER14
70
0
62
1
6
CONTINUOUS
0
LAYER
2
LAYER15
70
0
62
1
6
CONTINUOUS
0
LAYER
2
LAYER16
70
0
62
1
6
CONTINUOUS
0
LAYER
2
LAYER17
70
0
62
1
6
CONTINUOUS
0
LAYER
2
LAYER18
70
0
62
1
6
CONTINUOUS
0
LAYER
2
LAYER19
70
0
62
1
6
CONTINUOUS
0
ENDTAB
0
ENDSEC
0
SECTION
2
BLOCKS
0
ENDSEC
0
SECTION
2
ENTITIES
0
LINE
8
LAYER1
62
1
10
2.548276155335
20
19.500000000000
11
2.548276155335
21
100.500000000000
0
LINE
8
LAYER1
62
1
10
30.548276155335
20
17.500000000000
11
9.548276155335
21
17.500000000000
0
LINE
8
LAYER1
62
1
10
9.548276155335
20
17.500000000000
11
9.548276155335
21
19.500000000000
0
LINE
8
LAYER1
62
1
10
9.548276155335
20
19.500000000000
11
2.548276155335
21
19.500000000000
0
LINE
8
LAYER1
62
1
10
2.548276155335
20
100.500000000000
11
30.548276155335
21
100.500000000000
0
LINE
8
LAYER1
62
1
10
30.548276155335
20
100.500000000000
11
30.548276155335
21
17.500000000000
0
LINE
8
LAYER1
62
1
10
27.548276155335
20
17.500000000000
11
27.548276155335
21
100.500000000000
0
LINE
8
LAYER1
62
1
10
55.548276155335
20
17.500000000000
11
27.548276155335
21
17.500000000000
0
LINE
8
LAYER1
62
1
10
27.548276155335
20
100.500000000000
11
55.548276155335
21
100.500000000000
0
LINE
8
LAYER1
62
1
10
55.548276155335
20
100.500000000000
11
55.548276155335
21
17.500000000000
0
LINE
8
LAYER1
62
1
10
52.548276155335
20
17.500000000000
11
52.548276155335
21
100.500000000000
0
LINE
8
LAYER1
62
1
10
80.548276155335
20
17.500000000000
11
52.548276155335
21
17.500000000000
0
LINE
8
LAYER1
62
1
10
52.548276155335
20
100.500000000000
11
80.548276155335
21
100.500000000000
0
LINE
8
LAYER1
62
1
10
80.548276155335
20
100.500000000000
11
80.548276155335
21
17.500000000000
0
LINE
8
LAYER1
62
1
10
77.548276155335
20
17.500000000000
11
77.548276155335
21
100.500000000000
0
LINE
8
LAYER1
62
1
10
105.548276155335
20
17.500000000000
11
77.548276155335
21
17.500000000000
0
LINE
8
LAYER1
62
1
10
77.548276155335
20
100.500000000000
11
105.548276155335
21
100.500000000000
0
LINE
8
LAYER1
62
1
10
105.548276155335
20
100.500000000000
11
105.548276155335
21
17.500000000000
0
LINE
8
LAYER1
62
1
10
102.548276155335
20
17.500000000000
11
102.548276155335
21
100.500000000000
0
LINE
8
LAYER1
62
1
10
130.548276155335
20
17.500000000000
11
102.548276155335
21
17.500000000000
0
LINE
8
LAYER1
62
1
10
102.548276155335
20
100.500000000000
11
130.548276155335
21
100.500000000000
0
LINE
8
LAYER1
62
1
10
130.548276155335
20
100.500000000000
11
130.548276155335
21
17.500000000000
0
LINE
8
LAYER1
62
1
10
127.548276155335
20
17.500000000000
11
127.548276155335
21
100.500000000000
0
LINE
8
LAYER1
62
1
10
155.548276155335
20
17.500000000000
11
127.548276155335
21
17.500000000000
0
LINE
8
LAYER1
62
1
10
127.548276155335
20
100.500000000000
11
155.548276155335
21
100.500000000000
0
LINE
8
LAYER1
62
1
10
155.548276155335
20
100.500000000000
11
155.548276155335
21
17.500000000000
0
LINE
8
LAYER1
62
1
10
152.548276155335
20
17.500000000000
11
152.548276155335
21
100.500000000000
0
LINE
8
LAYER1
62
1
10
180.548276155335
20
17.500000000000
11
152.548276155335
21
17.500000000000
0
LINE
8
LAYER1
62
1
10
152.548276155335
20
100.500000000000
11
180.548276155335
21
100.500000000000
0
LINE
8
LAYER1
62
1
10
180.548276155335
20
100.500000000000
11
180.548276155335
21
17.500000000000
0
LINE
8
LAYER1
62
1
10
177.548276155335
20
17.500000000000
11
177.548276155335
21
100.500000000000
0
LINE
8
LAYER1
62
1
10
205.548276155335
20
17.500000000000
11
177.548276155335
21
17.500000000000
0
LINE
8
LAYER1
62
1
10
177.548276155335
20
100.500000000000
11
205.548276155335
21
100.500000000000
0
LINE
8
LAYER1
62
1
10
205.548276155335
20
100.500000000000
11
205.548276155335
21
17.500000000000
0
LINE
8
LAYER1
62
1
10
202.548276155335
20
17.500000000000
11
202.548276155335
21
100.500000000000
0
LINE
8
LAYER1
62
1
10
230.548276155335
20
17.500000000000
11
202.548276155335
21
17.500000000000
0
LINE
8
LAYER1
62
1
10
202.548276155335
20
100.500000000000
11
230.548276155335
21
100.500000000000
0
LINE
8
LAYER1
62
1
10
230.548276155335
20
100.500000000000
11
230.548276155335
21
17.500000000000
0
LINE
8
LAYER1
62
1
10
227.548276155335
20
17.500000000000
11
227.548276155335
21
100.500000000000
0
LINE
8
LAYER1
62
1
10
255.548276155335
20
17.500000000000
11
227.548276155335
21
17.500000000000
0
LINE
8
LAYER1
62
1
10
227.548276155335
20
100.500000000000
11
255.548276155335
21
100.500000000000
0
LINE
8
LAYER1
62
1
10
255.548276155335
20
100.500000000000
11
255.548276155335
21
17.500000000000
0
LINE
8
LAYER1
62
1
10
252.548276155335
20
17.500000000000
11
252.548276155335
21
100.500000000000
0
LINE
8
LAYER1
62
1
10
280.548276155335
20
17.500000000000
11
252.548276155335
21
17.500000000000
0
LINE
8
LAYER1
62
1
10
252.548276155335
20
100.500000000000
11
280.548276155335
21
100.500000000000
0
LINE
8
LAYER1
62
1
10
280.548276155335
20
100.500000000000
11
280.548276155335
21
17.500000000000
0
LINE
8
LAYER1
62
1
10
277.548276155335
20
17.500000000000
11
277.548276155335
21
100.500000000000
0
LINE
8
LAYER1
62
1
10
290.709320394078
20
19.500000000000
11
286.500000000000
21
19.500000000000
0
LINE
8
LAYER1
62
1
10
286.500000000000
20
19.500000000000
11
286.500000000000
21
17.500000000000
0
LINE
8
LAYER1
62
1
10
286.500000000000
20
17.500000000000
11
277.548276155335
21
17.500000000000
0
LINE
8
LAYER1
62
1
10
277.548276155335
20
100.500000000000
11
321.569944453518
21
100.500000000000
0
LINE
8
LAYER1
62
1
10
321.569944453518
20
100.500000000000
11
290.709320394078
21
19.500000000000
0
LINE
8
LAYER1
62
1
10
287.498959484373
20
19.500000000000
11
318.359583543813
21
100.500000000000
0
LINE
8
LAYER1
62
1
10
294.500000000000
20
14.179662819229
11
294.500000000000
21
19.500000000000
0
LINE
8
LAYER1
62
1
10
294.500000000000
20
19.500000000000
11
287.498959484373
21
19.500000000000
0
LINE
8
LAYER1
62
1
10
318.359583543813
20
100.500000000000
11
375.500000000000
21
100.500000000000
0
LINE
8
LAYER1
62
1
10
375.500000000000
20
100.500000000000
11
375.500000000000
21
98.556306778202
0
LINE
8
LAYER1
62
1
10
375.500000000000
20
98.556306778202
11
294.500000000000
21
14.179662819229
0
LINE
8
LAYER1
62
1
10
294.500000000000
20
18.511637605601
11
373.207294368989
21
100.500000000000
0
LINE
8
LAYER1
62
1
10
292.500000000000
20
10.078991849832
11
292.500000000000
21
11.500000000000
0
LINE
8
LAYER1
62
1
10
292.500000000000
20
11.500000000000
11
294.500000000000
21
11.500000000000
0
LINE
8
LAYER1
62
1
10
294.500000000000
20
11.500000000000
11
294.500000000000
21
18.511637605601
0
LINE
8
LAYER1
62
1
10
373.207294368989
20
100.500000000000
11
375.500000000000
21
100.500000000000
0
LINE
8
LAYER1
62
1
10
375.500000000000
20
100.500000000000
11
375.500000000000
21
39.553908775331
0
LINE
8
LAYER1
62
1
10
375.500000000000
20
39.553908775331
11
292.500000000000
21
10.078991849832
0
LINE
8
LAYER1
62
1
10
294.500000000000
20
13.972780499311
11
375.500000000000
21
42.737458462750
0
LINE
8
LAYER1
62
1
10
294.500000000000
20
0.000000000000
11
294.500000000000
21
8.000000000000
0
LINE
8
LAYER1
62
1
10
294.500000000000
20
8.000000000000
11
292.500000000000
21
8.000000000000
0
LINE
8
LAYER1
62
1
10
292.500000000000
20
8.000000000000
11
292.500000000000
21
11.500000000000
0
LINE
8
LAYER1
62
1
10
292.500000000000
20
11.500000000000
11
294.500000000000
21
11.500000000000
0
LINE
8
LAYER1
62
1
10
294.500000000000
20
11.500000000000
11
294.500000000000
21
13.972780499311
0
LINE
8
LAYER1
62
1
10
375.500000000000
20
42.737458462750
11
375.500000000000
21
0.000000000000
0
LINE
8
LAYER1
62
1
10
375.500000000000
20
0.000000000000
11
373.000000000000
21
0.000000000000
0
LINE
8
LAYER1
62
1
10
370.500000000000
20
0.000000000000
11
368.000000000000
21
0.000000000000
0
LINE
8
LAYER1
62
1
10
365.500000000000
20
0.000000000000
11
363.000000000000
21
0.000000000000
0
LINE
8
LAYER1
62
1
10
360.500000000000
20
0.000000000000
11
358.000000000000
21
0.000000000000
0
LINE
8
LAYER1
62
1
10
355.500000000000
20
0.000000000000
11
353.000000000000
21
0.000000000000
0
LINE
8
LAYER1
62
1
10
350.500000000000
20
0.000000000000
11
348.000000000000
21
0.000000000000
0
LINE
8
LAYER1
62
1
10
345.500000000000
20
0.000000000000
11
343.000000000000
21
0.000000000000
0
LINE
8
LAYER1
62
1
10
340.500000000000
20
0.000000000000
11
338.000000000000
21
0.000000000000
0
LINE
8
LAYER1
62
1
10
335.500000000000
20
0.000000000000
11
333.000000000000
21
0.000000000000
0
LINE
8
LAYER1
62
1
10
330.500000000000
20
0.000000000000
11
328.000000000000
21
0.000000000000
0
LINE
8
LAYER1
62
1
10
325.500000000000
20
0.000000000000
11
323.000000000000
21
0.000000000000
0
LINE
8
LAYER1
62
1
10
320.500000000000
20
0.000000000000
11
318.000000000000
21
0.000000000000
0
LINE
8
LAYER1
62
1
10
315.500000000000
20
0.000000000000
11
313.000000000000
21
0.000000000000
0
LINE
8
LAYER1
62
1
10
310.500000000000
20
0.000000000000
11
308.000000000000
21
0.000000000000
0
LINE
8
LAYER1
62
1
10
305.500000000000
20
0.000000000000
11
303.000000000000
21
0.000000000000
0
LINE
8
LAYER1
62
1
10
300.500000000000
20
0.000000000000
11
298.000000000000
21
0.000000000000
0
LINE
8
LAYER1
62
1
10
295.500000000000
20
0.000000000000
11
294.500000000000
21
0.000000000000
0
LINE
8
LAYER2
62
2
10
5.548276155335
20
21.500000000000
11
5.548276155335
21
24.000000000000
0
LINE
8
LAYER2
62
2
10
5.548276155335
20
26.500000000000
11
5.548276155335
21
29.000000000000
0
LINE
8
LAYER2
62
2
10
5.548276155335
20
31.500000000000
11
5.548276155335
21
34.000000000000
0
LINE
8
LAYER2
62
2
10
5.548276155335
20
36.500000000000
11
5.548276155335
21
39.000000000000
0
LINE
8
LAYER2
62
2
10
5.548276155335
20
41.500000000000
11
5.548276155335
21
44.000000000000
0
LINE
8
LAYER2
62
2
10
5.548276155335
20
46.500000000000
11
5.548276155335
21
49.000000000000
0
LINE
8
LAYER2
62
2
10
5.548276155335
20
51.500000000000
11
5.548276155335
21
54.000000000000
0
LINE
8
LAYER2
62
2
10
5.548276155335
20
56.500000000000
11
5.548276155335
21
59.000000000000
0
LINE
8
LAYER2
62
2
10
5.548276155335
20
61.500000000000
11
5.548276155335
21
64.000000000000
0
LINE
8
LAYER2
62
2
10
5.548276155335
20
66.500000000000
11
5.548276155335
21
69.000000000000
0
LINE
8
LAYER2
62
2
10
5.548276155335
20
71.500000000000
11
5.548276155335
21
74.000000000000
0
LINE
8
LAYER2
62
2
10
5.548276155335
20
76.500000000000
11
5.548276155335
21
79.000000000000
0
LINE
8
LAYER2
62
2
10
5.548276155335
20
81.500000000000
11
5.548276155335
21
84.000000000000
0
LINE
8
LAYER2
62
2
10
5.548276155335
20
86.500000000000
11
5.548276155335
21
89.000000000000
0
LINE
8
LAYER2
62
2
10
5.548276155335
20
91.500000000000
11
5.548276155335
21
94.000000000000
0
LINE
8
LAYER2
62
2
10
7.548276155335
20
96.500000000000
11
7.548276155335
21
94.000000000000
0
LINE
8
LAYER2
62
2
10
7.548276155335
20
91.500000000000
11
7.548276155335
21
89.000000000000
0
LINE
8
LAYER2
62
2
10
7.548276155335
20
86.500000000000
11
7.548276155335
21
84.000000000000
0
LINE
8
LAYER2
62
2
10
7.548276155335
20
81.500000000000
11
7.548276155335
21
79.000000000000
0
LINE
8
LAYER2
62
2
10
7.548276155335
20
76.500000000000
11
7.548276155335
21
74.000000000000
0
LINE
8
LAYER2
62
2
10
7.548276155335
20
71.500000000000
11
7.548276155335
21
69.000000000000
0
LINE
8
LAYER2
62
2
10
7.548276155335
20
66.500000000000
11
7.548276155335
21
64.000000000000
0
LINE
8
LAYER2
62
2
10
7.548276155335
20
61.500000000000
11
7.548276155335
21
59.000000000000
0
LINE
8
LAYER2
62
2
10
7.548276155335
20
56.500000000000
11
7.548276155335
21
54.000000000000
0
LINE
8
LAYER2
62
2
10
7.548276155335
20
51.500000000000
11
7.548276155335
21
49.000000000000
0
LINE
8
LAYER2
62
2
10
7.548276155335
20
46.500000000000
11
7.548276155335
21
44.000000000000
0
LINE
8
LAYER2
62
2
10
7.548276155335
20
41.500000000000
11
7.548276155335
21
39.000000000000
0
LINE
8
LAYER2
62
2
10
7.548276155335
20
36.500000000000
11
7.548276155335
21
34.000000000000
0
LINE
8
LAYER2
62
2
10
7.548276155335
20
31.500000000000
11
7.548276155335
21
29.000000000000
0
LINE
8
LAYER2
62
2
10
7.548276155335
20
26.500000000000
11
7.548276155335
21
24.000000000000
0
LINE
8
LAYER2
62
2
10
7.548276155335
20
21.500000000000
11
5.548276155335
21
21.500000000000
0
LINE
8
LAYER2
62
2
10
5.548276155335
20
96.500000000000
11
7.548276155335
21
96.500000000000
0
LINE
8
LAYER2
62
2
10
30.548276155335
20
21.500000000000
11
30.548276155335
21
24.000000000000
0
LINE
8
LAYER2
62
2
10
30.548276155335
20
26.500000000000
11
30.548276155335
21
29.000000000000
0
LINE
8
LAYER2
62
2
10
30.548276155335
20
31.500000000000
11
30.548276155335
21
34.000000000000
0
LINE
8
LAYER2
62
2
10
30.548276155335
20
36.500000000000
11
30.548276155335
21
39.000000000000
0
LINE
8
LAYER2
62
2
10
30.548276155335
20
41.500000000000
11
30.548276155335
21
44.000000000000
0
LINE
8
LAYER2
62
2
10
30.548276155335
20
46.500000000000
11
30.548276155335
21
49.000000000000
0
LINE
8
LAYER2
62
2
10
30.548276155335
20
51.500000000000
11
30.548276155335
21
54.000000000000
0
LINE
8
LAYER2
62
2
10
30.548276155335
20
56.500000000000
11
30.548276155335
21
59.000000000000
0
LINE
8
LAYER2
62
2
10
30.548276155335
20
61.500000000000
11
30.548276155335
21
64.000000000000
0
LINE
8
LAYER2
62
2
10
30.548276155335
20
66.500000000000
11
30.548276155335
21
69.000000000000
0
LINE
8
LAYER2
62
2
10
30.548276155335
20
71.500000000000
11
30.548276155335
21
74.000000000000
0
LINE
8
LAYER2
62
2
10
30.548276155335
20
76.500000000000
11
30.548276155335
21
79.000000000000
0
LINE
8
LAYER2
62
2
10
30.548276155335
20
81.500000000000
11
30.548276155335
21
84.000000000000
0
LINE
8
LAYER2
62
2
10
30.548276155335
20
86.500000000000
11
30.548276155335
21
89.000000000000
0
LINE
8
LAYER2
62
2
10
30.548276155335
20
91.500000000000
11
30.548276155335
21
94.000000000000
0
LINE
8
LAYER2
62
2
10
32.548276155335
20
96.500000000000
11
32.548276155335
21
94.000000000000
0
LINE
8
LAYER2
62
2
10
32.548276155335
20
91.500000000000
11
32.548276155335
21
89.000000000000
0
LINE
8
LAYER2
62
2
10
32.548276155335
20
86.500000000000
11
32.548276155335
21
84.000000000000
0
LINE
8
LAYER2
62
2
10
32.548276155335
20
81.500000000000
11
32.548276155335
21
79.000000000000
0
LINE
8
LAYER2
62
2
10
32.548276155335
20
76.500000000000
11
32.548276155335
21
74.000000000000
0
LINE
8
LAYER2
62
2
10
32.548276155335
20
71.500000000000
11
32.548276155335
21
69.000000000000
0
LINE
8
LAYER2
62
2
10
32.548276155335
20
66.500000000000
11
32.548276155335
21
64.000000000000
0
LINE
8
LAYER2
62
2
10
32.548276155335
20
61.500000000000
11
32.548276155335
21
59.000000000000
0
LINE
8
LAYER2
62
2
10
32.548276155335
20
56.500000000000
11
32.548276155335
21
54.000000000000
0
LINE
8
LAYER2
62
2
10
32.548276155335
20
51.500000000000
11
32.548276155335
21
49.000000000000
0
LINE
8
LAYER2
62
2
10
32.548276155335
20
46.500000000000
11
32.548276155335
21
44.000000000000
0
LINE
8
LAYER2
62
2
10
32.548276155335
20
41.500000000000
11
32.548276155335
21
39.000000000000
0
LINE
8
LAYER2
62
2
10
32.548276155335
20
36.500000000000
11
32.548276155335
21
34.000000000000
0
LINE
8
LAYER2
62
2
10
32.548276155335
20
31.500000000000
11
32.548276155335
21
29.000000000000
0
LINE
8
LAYER2
62
2
10
32.548276155335
20
26.500000000000
11
32.548276155335
21
24.000000000000
0
LINE
8
LAYER2
62
2
10
32.548276155335
20
21.500000000000
11
30.548276155335
21
21.500000000000
0
LINE
8
LAYER2
62
2
10
30.548276155335
20
96.500000000000
11
32.548276155335
21
96.500000000000
0
LINE
8
LAYER2
62
2
10
55.548276155335
20
21.500000000000
11
55.548276155335
21
24.000000000000
0
LINE
8
LAYER2
62
2
10
55.548276155335
20
26.500000000000
11
55.548276155335
21
29.000000000000
0
LINE
8
LAYER2
62
2
10
55.548276155335
20
31.500000000000
11
55.548276155335
21
34.000000000000
0
LINE
8
LAYER2
62
2
10
55.548276155335
20
36.500000000000
11
55.548276155335
21
39.000000000000
0
LINE
8
LAYER2
62
2
10
55.548276155335
20
41.500000000000
11
55.548276155335
21
44.000000000000
0
LINE
8
LAYER2
62
2
10
55.548276155335
20
46.500000000000
11
55.548276155335
21
49.000000000000
0
LINE
8
LAYER2
62
2
10
55.548276155335
20
51.500000000000
11
55.548276155335
21
54.000000000000
0
LINE
8
LAYER2
62
2
10
55.548276155335
20
56.500000000000
11
55.548276155335
21
59.000000000000
0
LINE
8
LAYER2
62
2
10
55.548276155335
20
61.500000000000
11
55.548276155335
21
64.000000000000
0
LINE
8
LAYER2
62
2
10
55.548276155335
20
66.500000000000
11
55.548276155335
21
69.000000000000
0
LINE
8
LAYER2
62
2
10
55.548276155335
20
71.500000000000
11
55.548276155335
21
74.000000000000
0
LINE
8
LAYER2
62
2
10
55.548276155335
20
76.500000000000
11
55.548276155335
21
79.000000000000
0
LINE
8
LAYER2
62
2
10
55.548276155335
20
81.500000000000
11
55.548276155335
21
84.000000000000
0
LINE
8
LAYER2
62
2
10
55.548276155335
20
86.500000000000
11
55.548276155335
21
89.000000000000
0
LINE
8
LAYER2
62
2
10
55.548276155335
20
91.500000000000
11
55.548276155335
21
94.000000000000
0
LINE
8
LAYER2
62
2
10
57.548276155335
20
96.500000000000
11
57.548276155335
21
94.000000000000
0
LINE
8
LAYER2
62
2
10
57.548276155335
20
91.500000000000
11
57.548276155335
21
89.000000000000
0
LINE
8
LAYER2
62
2
10
57.548276155335
20
86.500000000000
11
57.548276155335
21
84.000000000000
0
LINE
8
LAYER2
62
2
10
57.548276155335
20
81.500000000000
11
57.548276155335
21
79.000000000000
0
LINE
8
LAYER2
62
2
10
57.548276155335
20
76.500000000000
11
57.548276155335
21
74.000000000000
0
LINE
8
LAYER2
62
2
10
57.548276155335
20
71.500000000000
11
57.548276155335
21
69.000000000000
0
LINE
8
LAYER2
62
2
10
57.548276155335
20
66.500000000000
11
57.548276155335
21
64.000000000000
0
LINE
8
LAYER2
62
2
10
57.548276155335
20
61.500000000000
11
57.548276155335
21
59.000000000000
0
LINE
8
LAYER2
62
2
10
57.548276155335
20
56.500000000000
11
57.548276155335
21
54.000000000000
0
LINE
8
LAYER2
62
2
10
57.548276155335
20
51.500000000000
11
57.548276155335
21
49.000000000000
0
LINE
8
LAYER2
62
2
10
57.548276155335
20
46.500000000000
11
57.548276155335
21
44.000000000000
0
LINE
8
LAYER2
62
2
10
57.548276155335
20
41.500000000000
11
57.548276155335
21
39.000000000000
0
LINE
8
LAYER2
62
2
10
57.548276155335
20
36.500000000000
11
57.548276155335
21
34.000000000000
0
LINE
8
LAYER2
62
2
10
57.548276155335
20
31.500000000000
11
57.548276155335
21
29.000000000000
0
LINE
8
LAYER2
62
2
10
57.548276155335
20
26.500000000000
11
57.548276155335
21
24.000000000000
0
LINE
8
LAYER2
62
2
10
57.548276155335
20
21.500000000000
11
55.548276155335
21
21.500000000000
0
LINE
8
LAYER2
62
2
10
55.548276155335
20
96.500000000000
11
57.548276155335
21
96.500000000000
0
LINE
8
LAYER2
62
2
10
80.548276155335
20
21.500000000000
11
80.548276155335
21
24.000000000000
0
LINE
8
LAYER2
62
2
10
80.548276155335
20
26.500000000000
11
80.548276155335
21
29.000000000000
0
LINE
8
LAYER2
62
2
10
80.548276155335
20
31.500000000000
11
80.548276155335
21
34.000000000000
0
LINE
8
LAYER2
62
2
10
80.548276155335
20
36.500000000000
11
80.548276155335
21
39.000000000000
0
LINE
8
LAYER2
62
2
10
80.548276155335
20
41.500000000000
11
80.548276155335
21
44.000000000000
0
LINE
8
LAYER2
62
2
10
80.548276155335
20
46.500000000000
11
80.548276155335
21
49.000000000000
0
LINE
8
LAYER2
62
2
10
80.548276155335
20
51.500000000000
11
80.548276155335
21
54.000000000000
0
LINE
8
LAYER2
62
2
10
80.548276155335
20
56.500000000000
11
80.548276155335
21
59.000000000000
0
LINE
8
LAYER2
62
2
10
80.548276155335
20
61.500000000000
11
80.548276155335
21
64.000000000000
0
LINE
8
LAYER2
62
2
10
80.548276155335
20
66.500000000000
11
80.548276155335
21
69.000000000000
0
LINE
8
LAYER2
62
2
10
80.548276155335
20
71.500000000000
11
80.548276155335
21
74.000000000000
0
LINE
8
LAYER2
62
2
10
80.548276155335
20
76.500000000000
11
80.548276155335
21
79.000000000000
0
LINE
8
LAYER2
62
2
10
80.548276155335
20
81.500000000000
11
80.548276155335
21
84.000000000000
0
LINE
8
LAYER2
62
2
10
80.548276155335
20
86.500000000000
11
80.548276155335
21
89.000000000000
0
LINE
8
LAYER2
62
2
10
80.548276155335
20
91.500000000000
11
80.548276155335
21
94.000000000000
0
LINE
8
LAYER2
62
2
10
82.548276155335
20
96.500000000000
11
82.548276155335
21
94.000000000000
0
LINE
8
LAYER2
62
2
10
82.548276155335
20
91.500000000000
11
82.548276155335
21
89.000000000000
0
LINE
8
LAYER2
62
2
10
82.548276155335
20
86.500000000000
11
82.548276155335
21
84.000000000000
0
LINE
8
LAYER2
62
2
10
82.548276155335
20
81.500000000000
11
82.548276155335
21
79.000000000000
0
LINE
8
LAYER2
62
2
10
82.548276155335
20
76.500000000000
11
82.548276155335
21
74.000000000000
0
LINE
8
LAYER2
62
2
10
82.548276155335
20
71.500000000000
11
82.548276155335
21
69.000000000000
0
LINE
8
LAYER2
62
2
10
82.548276155335
20
66.500000000000
11
82.548276155335
21
64.000000000000
0
LINE
8
LAYER2
62
2
10
82.548276155335
20
61.500000000000
11
82.548276155335
21
59.000000000000
0
LINE
8
LAYER2
62
2
10
82.548276155335
20
56.500000000000
11
82.548276155335
21
54.000000000000
0
LINE
8
LAYER2
62
2
10
82.548276155335
20
51.500000000000
11
82.548276155335
21
49.000000000000
0
LINE
8
LAYER2
62
2
10
82.548276155335
20
46.500000000000
11
82.548276155335
21
44.000000000000
0
LINE
8
LAYER2
62
2
10
82.548276155335
20
41.500000000000
11
82.548276155335
21
39.000000000000
0
LINE
8
LAYER2
62
2
10
82.548276155335
20
36.500000000000
11
82.548276155335
21
34.000000000000
0
LINE
8
LAYER2
62
2
10
82.548276155335
20
31.500000000000
11
82.548276155335
21
29.000000000000
0
LINE
8
LAYER2
62
2
10
82.548276155335
20
26.500000000000
11
82.548276155335
21
24.000000000000
0
LINE
8
LAYER2
62
2
10
82.548276155335
20
21.500000000000
11
80.548276155335
21
21.500000000000
0
LINE
8
LAYER2
62
2
10
80.548276155335
20
96.500000000000
11
82.548276155335
21
96.500000000000
0
LINE
8
LAYER2
62
2
10
105.548276155335
20
21.500000000000
11
105.548276155335
21
24.000000000000
0
LINE
8
LAYER2
62
2
10
105.548276155335
20
26.500000000000
11
105.548276155335
21
29.000000000000
0
LINE
8
LAYER2
62
2
10
105.548276155335
20
31.500000000000
11
105.548276155335
21
34.000000000000
0
LINE
8
LAYER2
62
2
10
105.548276155335
20
36.500000000000
11
105.548276155335
21
39.000000000000
0
LINE
8
LAYER2
62
2
10
105.548276155335
20
41.500000000000
11
105.548276155335
21
44.000000000000
0
LINE
8
LAYER2
62
2
10
105.548276155335
20
46.500000000000
11
105.548276155335
21
49.000000000000
0
LINE
8
LAYER2
62
2
10
105.548276155335
20
51.500000000000
11
105.548276155335
21
54.000000000000
0
LINE
8
LAYER2
62
2
10
105.548276155335
20
56.500000000000
11
105.548276155335
21
59.000000000000
0
LINE
8
LAYER2
62
2
10
105.548276155335
20
61.500000000000
11
105.548276155335
21
64.000000000000
0
LINE
8
LAYER2
62
2
10
105.548276155335
20
66.500000000000
11
105.548276155335
21
69.000000000000
0
LINE
8
LAYER2
62
2
10
105.548276155335
20
71.500000000000
11
105.548276155335
21
74.000000000000
0
LINE
8
LAYER2
62
2
10
105.548276155335
20
76.500000000000
11
105.548276155335
21
79.000000000000
0
LINE
8
LAYER2
62
2
10
105.548276155335
20
81.500000000000
11
105.548276155335
21
84.000000000000
0
LINE
8
LAYER2
62
2
10
105.548276155335
20
86.500000000000
11
105.548276155335
21
89.000000000000
0
LINE
8
LAYER2
62
2
10
105.548276155335
20
91.500000000000
11
105.548276155335
21
94.000000000000
0
LINE
8
LAYER2
62
2
10
107.548276155335
20
96.500000000000
11
107.548276155335
21
94.000000000000
0
LINE
8
LAYER2
62
2
10
107.548276155335
20
91.500000000000
11
107.548276155335
21
89.000000000000
0
LINE
8
LAYER2
62
2
10
107.548276155335
20
86.500000000000
11
107.548276155335
21
84.000000000000
0
LINE
8
LAYER2
62
2
10
107.548276155335
20
81.500000000000
11
107.548276155335
21
79.000000000000
0
LINE
8
LAYER2
62
2
10
107.548276155335
20
76.500000000000
11
107.548276155335
21
74.000000000000
0
LINE
8
LAYER2
62
2
10
107.548276155335
20
71.500000000000
11
107.548276155335
21
69.000000000000
0
LINE
8
LAYER2
62
2
10
107.548276155335
20
66.500000000000
11
107.548276155335
21
64.000000000000
0
LINE
8
LAYER2
62
2
10
107.548276155335
20
61.500000000000
11
107.548276155335
21
59.000000000000
0
LINE
8
LAYER2
62
2
10
107.548276155335
20
56.500000000000
11
107.548276155335
21
54.000000000000
0
LINE
8
LAYER2
62
2
10
107.548276155335
20
51.500000000000
11
107.548276155335
21
49.000000000000
0
LINE
8
LAYER2
62
2
10
107.548276155335
20
46.500000000000
11
107.548276155335
21
44.000000000000
0
LINE
8
LAYER2
62
2
10
107.548276155335
20
41.500000000000
11
107.548276155335
21
39.000000000000
0
LINE
8
LAYER2
62
2
10
107.548276155335
20
36.500000000000
11
107.548276155335
21
34.000000000000
0
LINE
8
LAYER2
62
2
10
107.548276155335
20
31.500000000000
11
107.548276155335
21
29.000000000000
0
LINE
8
LAYER2
62
2
10
107.548276155335
20
26.500000000000
11
107.548276155335
21
24.000000000000
0
LINE
8
LAYER2
62
2
10
107.548276155335
20
21.500000000000
11
105.548276155335
21
21.500000000000
0
LINE
8
LAYER2
62
2
10
105.548276155335
20
96.500000000000
11
107.548276155335
21
96.500000000000
0
LINE
8
LAYER2
62
2
10
130.548276155335
20
21.500000000000
11
130.548276155335
21
24.000000000000
0
LINE
8
LAYER2
62
2
10
130.548276155335
20
26.500000000000
11
130.548276155335
21
29.000000000000
0
LINE
8
LAYER2
62
2
10
130.548276155335
20
31.500000000000
11
130.548276155335
21
34.000000000000
0
LINE
8
LAYER2
62
2
10
130.548276155335
20
36.500000000000
11
130.548276155335
21
39.000000000000
0
LINE
8
LAYER2
62
2
10
130.548276155335
20
41.500000000000
11
130.548276155335
21
44.000000000000
0
LINE
8
LAYER2
62
2
10
130.548276155335
20
46.500000000000
11
130.548276155335
21
49.000000000000
0
LINE
8
LAYER2
62
2
10
130.548276155335
20
51.500000000000
11
130.548276155335
21
54.000000000000
0
LINE
8
LAYER2
62
2
10
130.548276155335
20
56.500000000000
11
130.548276155335
21
59.000000000000
0
LINE
8
LAYER2
62
2
10
130.548276155335
20
61.500000000000
11
130.548276155335
21
64.000000000000
0
LINE
8
LAYER2
62
2
10
130.548276155335
20
66.500000000000
11
130.548276155335
21
69.000000000000
0
LINE
8
LAYER2
62
2
10
130.548276155335
20
71.500000000000
11
130.548276155335
21
74.000000000000
0
LINE
8
LAYER2
62
2
10
130.548276155335
20
76.500000000000
11
130.548276155335
21
79.000000000000
0
LINE
8
LAYER2
62
2
10
130.548276155335
20
81.500000000000
11
130.548276155335
21
84.000000000000
0
LINE
8
LAYER2
62
2
10
130.548276155335
20
86.500000000000
11
130.548276155335
21
89.000000000000
0
LINE
8
LAYER2
62
2
10
130.548276155335
20
91.500000000000
11
130.548276155335
21
94.000000000000
0
LINE
8
LAYER2
62
2
10
132.548276155335
20
96.500000000000
11
132.548276155335
21
94.000000000000
0
LINE
8
LAYER2
62
2
10
132.548276155335
20
91.500000000000
11
132.548276155335
21
89.000000000000
0
LINE
8
LAYER2
62
2
10
132.548276155335
20
86.500000000000
11
132.548276155335
21
84.000000000000
0
LINE
8
LAYER2
62
2
10
132.548276155335
20
81.500000000000
11
132.548276155335
21
79.000000000000
0
LINE
8
LAYER2
62
2
10
132.548276155335
20
76.500000000000
11
132.548276155335
21
74.000000000000
0
LINE
8
LAYER2
62
2
10
132.548276155335
20
71.500000000000
11
132.548276155335
21
69.000000000000
0
LINE
8
LAYER2
62
2
10
132.548276155335
20
66.500000000000
11
132.548276155335
21
64.000000000000
0
LINE
8
LAYER2
62
2
10
132.548276155335
20
61.500000000000
11
132.548276155335
21
59.000000000000
0
LINE
8
LAYER2
62
2
10
132.548276155335
20
56.500000000000
11
132.548276155335
21
54.000000000000
0
LINE
8
LAYER2
62
2
10
132.548276155335
20
51.500000000000
11
132.548276155335
21
49.000000000000
0
LINE
8
LAYER2
62
2
10
132.548276155335
20
46.500000000000
11
132.548276155335
21
44.000000000000
0
LINE
8
LAYER2
62
2
10
132.548276155335
20
41.500000000000
11
132.548276155335
21
39.000000000000
0
LINE
8
LAYER2
62
2
10
132.548276155335
20
36.500000000000
11
132.548276155335
21
34.000000000000
0
LINE
8
LAYER2
62
2
10
132.548276155335
20
31.500000000000
11
132.548276155335
21
29.000000000000
0
LINE
8
LAYER2
62
2
10
132.548276155335
20
26.500000000000
11
132.548276155335
21
24.000000000000
0
LINE
8
LAYER2
62
2
10
132.548276155335
20
21.500000000000
11
130.548276155335
21
21.500000000000
0
LINE
8
LAYER2
62
2
10
130.548276155335
20
96.500000000000
11
132.548276155335
21
96.500000000000
0
LINE
8
LAYER2
62
2
10
155.548276155335
20
21.500000000000
11
155.548276155335
21
24.000000000000
0
LINE
8
LAYER2
62
2
10
155.548276155335
20
26.500000000000
11
155.548276155335
21
29.000000000000
0
LINE
8
LAYER2
62
2
10
155.548276155335
20
31.500000000000
11
155.548276155335
21
34.000000000000
0
LINE
8
LAYER2
62
2
10
155.548276155335
20
36.500000000000
11
155.548276155335
21
39.000000000000
0
LINE
8
LAYER2
62
2
10
155.548276155335
20
41.500000000000
11
155.548276155335
21
44.000000000000
0
LINE
8
LAYER2
62
2
10
155.548276155335
20
46.500000000000
11
155.548276155335
21
49.000000000000
0
LINE
8
LAYER2
62
2
10
155.548276155335
20
51.500000000000
11
155.548276155335
21
54.000000000000
0
LINE
8
LAYER2
62
2
10
155.548276155335
20
56.500000000000
11
155.548276155335
21
59.000000000000
0
LINE
8
LAYER2
62
2
10
155.548276155335
20
61.500000000000
11
155.548276155335
21
64.000000000000
0
LINE
8
LAYER2
62
2
10
155.548276155335
20
66.500000000000
11
155.548276155335
21
69.000000000000
0
LINE
8
LAYER2
62
2
10
155.548276155335
20
71.500000000000
11
155.548276155335
21
74.000000000000
0
LINE
8
LAYER2
62
2
10
155.548276155335
20
76.500000000000
11
155.548276155335
21
79.000000000000
0
LINE
8
LAYER2
62
2
10
155.548276155335
20
81.500000000000
11
155.548276155335
21
84.000000000000
0
LINE
8
LAYER2
62
2
10
155.548276155335
20
86.500000000000
11
155.548276155335
21
89.000000000000
0
LINE
8
LAYER2
62
2
10
155.548276155335
20
91.500000000000
11
155.548276155335
21
94.000000000000
0
LINE
8
LAYER2
62
2
10
157.548276155335
20
96.500000000000
11
157.548276155335
21
94.000000000000
0
LINE
8
LAYER2
62
2
10
157.548276155335
20
91.500000000000
11
157.548276155335
21
89.000000000000
0
LINE
8
LAYER2
62
2
10
157.548276155335
20
86.500000000000
11
157.548276155335
21
84.000000000000
0
LINE
8
LAYER2
62
2
10
157.548276155335
20
81.500000000000
11
157.548276155335
21
79.000000000000
0
LINE
8
LAYER2
62
2
10
157.548276155335
20
76.500000000000
11
157.548276155335
21
74.000000000000
0
LINE
8
LAYER2
62
2
10
157.548276155335
20
71.500000000000
11
157.548276155335
21
69.000000000000
0
LINE
8
LAYER2
62
2
10
157.548276155335
20
66.500000000000
11
157.548276155335
21
64.000000000000
0
LINE
8
LAYER2
62
2
10
157.548276155335
20
61.500000000000
11
157.548276155335
21
59.000000000000
0
LINE
8
LAYER2
62
2
10
157.548276155335
20
56.500000000000
11
157.548276155335
21
54.000000000000
0
LINE
8
LAYER2
62
2
10
157.548276155335
20
51.500000000000
11
157.548276155335
21
49.000000000000
0
LINE
8
LAYER2
62
2
10
157.548276155335
20
46.500000000000
11
157.548276155335
21
44.000000000000
0
LINE
8
LAYER2
62
2
10
157.548276155335
20
41.500000000000
11
157.548276155335
21
39.000000000000
0
LINE
8
LAYER2
62
2
10
157.548276155335
20
36.500000000000
11
157.548276155335
21
34.000000000000
0
LINE
8
LAYER2
62
2
10
157.548276155335
20
31.500000000000
11
157.548276155335
21
29.000000000000
0
LINE
8
LAYER2
62
2
10
157.548276155335
20
26.500000000000
11
157.548276155335
21
24.000000000000
0
LINE
8
LAYER2
62
2
10
157.548276155335
20
21.500000000000
11
155.548276155335
21
21.500000000000
0
LINE
8
LAYER2
62
2
10
155.548276155335
20
96.500000000000
11
157.548276155335
21
96.500000000000
0
LINE
8
LAYER2
62
2
10
180.548276155335
20
21.500000000000
11
180.548276155335
21
24.000000000000
0
LINE
8
LAYER2
62
2
10
180.548276155335
20
26.500000000000
11
180.548276155335
21
29.000000000000
0
LINE
8
LAYER2
62
2
10
180.548276155335
20
31.500000000000
11
180.548276155335
21
34.000000000000
0
LINE
8
LAYER2
62
2
10
180.548276155335
20
36.500000000000
11
180.548276155335
21
39.000000000000
0
LINE
8
LAYER2
62
2
10
180.548276155335
20
41.500000000000
11
180.548276155335
21
44.000000000000
0
LINE
8
LAYER2
62
2
10
180.548276155335
20
46.500000000000
11
180.548276155335
21
49.000000000000
0
LINE
8
LAYER2
62
2
10
180.548276155335
20
51.500000000000
11
180.548276155335
21
54.000000000000
0
LINE
8
LAYER2
62
2
10
180.548276155335
20
56.500000000000
11
180.548276155335
21
59.000000000000
0
LINE
8
LAYER2
62
2
10
180.548276155335
20
61.500000000000
11
180.548276155335
21
64.000000000000
0
LINE
8
LAYER2
62
2
10
180.548276155335
20
66.500000000000
11
180.548276155335
21
69.000000000000
0
LINE
8
LAYER2
62
2
10
180.548276155335
20
71.500000000000
11
180.548276155335
21
74.000000000000
0
LINE
8
LAYER2
62
2
10
180.548276155335
20
76.500000000000
11
180.548276155335
21
79.000000000000
0
LINE
8
LAYER2
62
2
10
180.548276155335
20
81.500000000000
11
180.548276155335
21
84.000000000000
0
LINE
8
LAYER2
62
2
10
180.548276155335
20
86.500000000000
11
180.548276155335
21
89.000000000000
0
LINE
8
LAYER2
62
2
10
180.548276155335
20
91.500000000000
11
180.548276155335
21
94.000000000000
0
LINE
8
LAYER2
62
2
10
182.548276155335
20
96.500000000000
11
182.548276155335
21
94.000000000000
0
LINE
8
LAYER2
62
2
10
182.548276155335
20
91.500000000000
11
182.548276155335
21
89.000000000000
0
LINE
8
LAYER2
62
2
10
182.548276155335
20
86.500000000000
11
182.548276155335
21
84.000000000000
0
LINE
8
LAYER2
62
2
10
182.548276155335
20
81.500000000000
11
182.548276155335
21
79.000000000000
0
LINE
8
LAYER2
62
2
10
182.548276155335
20
76.500000000000
11
182.548276155335
21
74.000000000000
0
LINE
8
LAYER2
62
2
10
182.548276155335
20
71.500000000000
11
182.548276155335
21
69.000000000000
0
LINE
8
LAYER2
62
2
10
182.548276155335
20
66.500000000000
11
182.548276155335
21
64.000000000000
0
LINE
8
LAYER2
62
2
10
182.548276155335
20
61.500000000000
11
182.548276155335
21
59.000000000000
0
LINE
8
LAYER2
62
2
10
182.548276155335
20
56.500000000000
11
182.548276155335
21
54.000000000000
0
LINE
8
LAYER2
62
2
10
182.548276155335
20
51.500000000000
11
182.548276155335
21
49.000000000000
0
LINE
8
LAYER2
62
2
10
182.548276155335
20
46.500000000000
11
182.548276155335
21
44.000000000000
0
LINE
8
LAYER2
62
2
10
182.548276155335
20
41.500000000000
11
182.548276155335
21
39.000000000000
0
LINE
8
LAYER2
62
2
10
182.548276155335
20
36.500000000000
11
182.548276155335
21
34.000000000000
0
LINE
8
LAYER2
62
2
10
182.548276155335
20
31.500000000000
11
182.548276155335
21
29.000000000000
0
LINE
8
LAYER2
62
2
10
182.548276155335
20
26.500000000000
11
182.548276155335
21
24.000000000000
0
LINE
8
LAYER2
62
2
10
182.548276155335
20
21.500000000000
11
180.548276155335
21
21.500000000000
0
LINE
8
LAYER2
62
2
10
180.548276155335
20
96.500000000000
11
182.548276155335
21
96.500000000000
0
LINE
8
LAYER2
62
2
10
205.548276155335
20
21.500000000000
11
205.548276155335
21
24.000000000000
0
LINE
8
LAYER2
62
2
10
205.548276155335
20
26.500000000000
11
205.548276155335
21
29.000000000000
0
LINE
8
LAYER2
62
2
10
205.548276155335
20
31.500000000000
11
205.548276155335
21
34.000000000000
0
LINE
8
LAYER2
62
2
10
205.548276155335
20
36.500000000000
11
205.548276155335
21
39.000000000000
0
LINE
8
LAYER2
62
2
10
205.548276155335
20
41.500000000000
11
205.548276155335
21
44.000000000000
0
LINE
8
LAYER2
62
2
10
205.548276155335
20
46.500000000000
11
205.548276155335
21
49.000000000000
0
LINE
8
LAYER2
62
2
10
205.548276155335
20
51.500000000000
11
205.548276155335
21
54.000000000000
0
LINE
8
LAYER2
62
2
10
205.548276155335
20
56.500000000000
11
205.548276155335
21
59.000000000000
0
LINE
8
LAYER2
62
2
10
205.548276155335
20
61.500000000000
11
205.548276155335
21
64.000000000000
0
LINE
8
LAYER2
62
2
10
205.548276155335
20
66.500000000000
11
205.548276155335
21
69.000000000000
0
LINE
8
LAYER2
62
2
10
205.548276155335
20
71.500000000000
11
205.548276155335
21
74.000000000000
0
LINE
8
LAYER2
62
2
10
205.548276155335
20
76.500000000000
11
205.548276155335
21
79.000000000000
0
LINE
8
LAYER2
62
2
10
205.548276155335
20
81.500000000000
11
205.548276155335
21
84.000000000000
0
LINE
8
LAYER2
62
2
10
205.548276155335
20
86.500000000000
11
205.548276155335
21
89.000000000000
0
LINE
8
LAYER2
62
2
10
205.548276155335
20
91.500000000000
11
205.548276155335
21
94.000000000000
0
LINE
8
LAYER2
62
2
10
207.548276155335
20
96.500000000000
11
207.548276155335
21
94.000000000000
0
LINE
8
LAYER2
62
2
10
207.548276155335
20
91.500000000000
11
207.548276155335
21
89.000000000000
0
LINE
8
LAYER2
62
2
10
207.548276155335
20
86.500000000000
11
207.548276155335
21
84.000000000000
0
LINE
8
LAYER2
62
2
10
207.548276155335
20
81.500000000000
11
207.548276155335
21
79.000000000000
0
LINE
8
LAYER2
62
2
10
207.548276155335
20
76.500000000000
11
207.548276155335
21
74.000000000000
0
LINE
8
LAYER2
62
2
10
207.548276155335
20
71.500000000000
11
207.548276155335
21
69.000000000000
0
LINE
8
LAYER2
62
2
10
207.548276155335
20
66.500000000000
11
207.548276155335
21
64.000000000000
0
LINE
8
LAYER2
62
2
10
207.548276155335
20
61.500000000000
11
207.548276155335
21
59.000000000000
0
LINE
8
LAYER2
62
2
10
207.548276155335
20
56.500000000000
11
207.548276155335
21
54.000000000000
0
LINE
8
LAYER2
62
2
10
207.548276155335
20
51.500000000000
11
207.548276155335
21
49.000000000000
0
LINE
8
LAYER2
62
2
10
207.548276155335
20
46.500000000000
11
207.548276155335
21
44.000000000000
0
LINE
8
LAYER2
62
2
10
207.548276155335
20
41.500000000000
11
207.548276155335
21
39.000000000000
0
LINE
8
LAYER2
62
2
10
207.548276155335
20
36.500000000000
11
207.548276155335
21
34.000000000000
0
LINE
8
LAYER2
62
2
10
207.548276155335
20
31.500000000000
11
207.548276155335
21
29.000000000000
0
LINE
8
LAYER2
62
2
10
207.548276155335
20
26.500000000000
11
207.548276155335
21
24.000000000000
0
LINE
8
LAYER2
62
2
10
207.548276155335
20
21.500000000000
11
205.548276155335
21
21.500000000000
0
LINE
8
LAYER2
62
2
10
205.548276155335
20
96.500000000000
11
207.548276155335
21
96.500000000000
0
LINE
8
LAYER2
62
2
10
230.548276155335
20
21.500000000000
11
230.548276155335
21
24.000000000000
0
LINE
8
LAYER2
62
2
10
230.548276155335
20
26.500000000000
11
230.548276155335
21
29.000000000000
0
LINE
8
LAYER2
62
2
10
230.548276155335
20
31.500000000000
11
230.548276155335
21
34.000000000000
0
LINE
8
LAYER2
62
2
10
230.548276155335
20
36.500000000000
11
230.548276155335
21
39.000000000000
0
LINE
8
LAYER2
62
2
10
230.548276155335
20
41.500000000000
11
230.548276155335
21
44.000000000000
0
LINE
8
LAYER2
62
2
10
230.548276155335
20
46.500000000000
11
230.548276155335
21
49.000000000000
0
LINE
8
LAYER2
62
2
10
230.548276155335
20
51.500000000000
11
230.548276155335
21
54.000000000000
0
LINE
8
LAYER2
62
2
10
230.548276155335
20
56.500000000000
11
230.548276155335
21
59.000000000000
0
LINE
8
LAYER2
62
2
10
230.548276155335
20
61.500000000000
11
230.548276155335
21
64.000000000000
0
LINE
8
LAYER2
62
2
10
230.548276155335
20
66.500000000000
11
230.548276155335
21
69.000000000000
0
LINE
8
LAYER2
62
2
10
230.548276155335
20
71.500000000000
11
230.548276155335
21
74.000000000000
0
LINE
8
LAYER2
62
2
10
230.548276155335
20
76.500000000000
11
230.548276155335
21
79.000000000000
0
LINE
8
LAYER2
62
2
10
230.548276155335
20
81.500000000000
11
230.548276155335
21
84.000000000000
0
LINE
8
LAYER2
62
2
10
230.548276155335
20
86.500000000000
11
230.548276155335
21
89.000000000000
0
LINE
8
LAYER2
62
2
10
230.548276155335
20
91.500000000000
11
230.548276155335
21
94.000000000000
0
LINE
8
LAYER2
62
2
10
232.548276155335
20
96.500000000000
11
232.548276155335
21
94.000000000000
0
LINE
8
LAYER2
62
2
10
232.548276155335
20
91.500000000000
11
232.548276155335
21
89.000000000000
0
LINE
8
LAYER2
62
2
10
232.548276155335
20
86.500000000000
11
232.548276155335
21
84.000000000000
0
LINE
8
LAYER2
62
2
10
232.548276155335
20
81.500000000000
11
232.548276155335
21
79.000000000000
0
LINE
8
LAYER2
62
2
10
232.548276155335
20
76.500000000000
11
232.548276155335
21
74.000000000000
0
LINE
8
LAYER2
62
2
10
232.548276155335
20
71.500000000000
11
232.548276155335
21
69.000000000000
0
LINE
8
LAYER2
62
2
10
232.548276155335
20
66.500000000000
11
232.548276155335
21
64.000000000000
0
LINE
8
LAYER2
62
2
10
232.548276155335
20
61.500000000000
11
232.548276155335
21
59.000000000000
0
LINE
8
LAYER2
62
2
10
232.548276155335
20
56.500000000000
11
232.548276155335
21
54.000000000000
0
LINE
8
LAYER2
62
2
10
232.548276155335
20
51.500000000000
11
232.548276155335
21
49.000000000000
0
LINE
8
LAYER2
62
2
10
232.548276155335
20
46.500000000000
11
232.548276155335
21
44.000000000000
0
LINE
8
LAYER2
62
2
10
232.548276155335
20
41.500000000000
11
232.548276155335
21
39.000000000000
0
LINE
8
LAYER2
62
2
10
232.548276155335
20
36.500000000000
11
232.548276155335
21
34.000000000000
0
LINE
8
LAYER2
62
2
10
232.548276155335
20
31.500000000000
11
232.548276155335
21
29.000000000000
0
LINE
8
LAYER2
62
2
10
232.548276155335
20
26.500000000000
11
232.548276155335
21
24.000000000000
0
LINE
8
LAYER2
62
2
10
232.548276155335
20
21.500000000000
11
230.548276155335
21
21.500000000000
0
LINE
8
LAYER2
62
2
10
230.548276155335
20
96.500000000000
11
232.548276155335
21
96.500000000000
0
LINE
8
LAYER2
62
2
10
255.548276155335
20
21.500000000000
11
255.548276155335
21
24.000000000000
0
LINE
8
LAYER2
62
2
10
255.548276155335
20
26.500000000000
11
255.548276155335
21
29.000000000000
0
LINE
8
LAYER2
62
2
10
255.548276155335
20
31.500000000000
11
255.548276155335
21
34.000000000000
0
LINE
8
LAYER2
62
2
10
255.548276155335
20
36.500000000000
11
255.548276155335
21
39.000000000000
0
LINE
8
LAYER2
62
2
10
255.548276155335
20
41.500000000000
11
255.548276155335
21
44.000000000000
0
LINE
8
LAYER2
62
2
10
255.548276155335
20
46.500000000000
11
255.548276155335
21
49.000000000000
0
LINE
8
LAYER2
62
2
10
255.548276155335
20
51.500000000000
11
255.548276155335
21
54.000000000000
0
LINE
8
LAYER2
62
2
10
255.548276155335
20
56.500000000000
11
255.548276155335
21
59.000000000000
0
LINE
8
LAYER2
62
2
10
255.548276155335
20
61.500000000000
11
255.548276155335
21
64.000000000000
0
LINE
8
LAYER2
62
2
10
255.548276155335
20
66.500000000000
11
255.548276155335
21
69.000000000000
0
LINE
8
LAYER2
62
2
10
255.548276155335
20
71.500000000000
11
255.548276155335
21
74.000000000000
0
LINE
8
LAYER2
62
2
10
255.548276155335
20
76.500000000000
11
255.548276155335
21
79.000000000000
0
LINE
8
LAYER2
62
2
10
255.548276155335
20
81.500000000000
11
255.548276155335
21
84.000000000000
0
LINE
8
LAYER2
62
2
10
255.548276155335
20
86.500000000000
11
255.548276155335
21
89.000000000000
0
LINE
8
LAYER2
62
2
10
255.548276155335
20
91.500000000000
11
255.548276155335
21
94.000000000000
0
LINE
8
LAYER2
62
2
10
257.548276155335
20
96.500000000000
11
257.548276155335
21
94.000000000000
0
LINE
8
LAYER2
62
2
10
257.548276155335
20
91.500000000000
11
257.548276155335
21
89.000000000000
0
LINE
8
LAYER2
62
2
10
257.548276155335
20
86.500000000000
11
257.548276155335
21
84.000000000000
0
LINE
8
LAYER2
62
2
10
257.548276155335
20
81.500000000000
11
257.548276155335
21
79.000000000000
0
LINE
8
LAYER2
62
2
10
257.548276155335
20
76.500000000000
11
257.548276155335
21
74.000000000000
0
LINE
8
LAYER2
62
2
10
257.548276155335
20
71.500000000000
11
257.548276155335
21
69.000000000000
0
LINE
8
LAYER2
62
2
10
257.548276155335
20
66.500000000000
11
257.548276155335
21
64.000000000000
0
LINE
8
LAYER2
62
2
10
257.548276155335
20
61.500000000000
11
257.548276155335
21
59.000000000000
0
LINE
8
LAYER2
62
2
10
257.548276155335
20
56.500000000000
11
257.548276155335
21
54.000000000000
0
LINE
8
LAYER2
62
2
10
257.548276155335
20
51.500000000000
11
257.548276155335
21
49.000000000000
0
LINE
8
LAYER2
62
2
10
257.548276155335
20
46.500000000000
11
257.548276155335
21
44.000000000000
0
LINE
8
LAYER2
62
2
10
257.548276155335
20
41.500000000000
11
257.548276155335
21
39.000000000000
0
LINE
8
LAYER2
62
2
10
257.548276155335
20
36.500000000000
11
257.548276155335
21
34.000000000000
0
LINE
8
LAYER2
62
2
10
257.548276155335
20
31.500000000000
11
257.548276155335
21
29.000000000000
0
LINE
8
LAYER2
62
2
10
257.548276155335
20
26.500000000000
11
257.548276155335
21
24.000000000000
0
LINE
8
LAYER2
62
2
10
257.548276155335
20
21.500000000000
11
255.548276155335
21
21.500000000000
0
LINE
8
LAYER2
62
2
10
255.548276155335
20
96.500000000000
11
257.548276155335
21
96.500000000000
0
LINE
8
LAYER2
62
2
10
280.548276155335
20
21.500000000000
11
280.548276155335
21
24.000000000000
0
LINE
8
LAYER2
62
2
10
280.548276155335
20
26.500000000000
11
280.548276155335
21
29.000000000000
0
LINE
8
LAYER2
62
2
10
280.548276155335
20
31.500000000000
11
280.548276155335
21
34.000000000000
0
LINE
8
LAYER2
62
2
10
280.548276155335
20
36.500000000000
11
280.548276155335
21
39.000000000000
0
LINE
8
LAYER2
62
2
10
280.548276155335
20
41.500000000000
11
280.548276155335
21
44.000000000000
0
LINE
8
LAYER2
62
2
10
280.548276155335
20
46.500000000000
11
280.548276155335
21
49.000000000000
0
LINE
8
LAYER2
62
2
10
280.548276155335
20
51.500000000000
11
280.548276155335
21
54.000000000000
0
LINE
8
LAYER2
62
2
10
280.548276155335
20
56.500000000000
11
280.548276155335
21
59.000000000000
0
LINE
8
LAYER2
62
2
10
280.548276155335
20
61.500000000000
11
280.548276155335
21
64.000000000000
0
LINE
8
LAYER2
62
2
10
280.548276155335
20
66.500000000000
11
280.548276155335
21
69.000000000000
0
LINE
8
LAYER2
62
2
10
280.548276155335
20
71.500000000000
11
280.548276155335
21
74.000000000000
0
LINE
8
LAYER2
62
2
10
280.548276155335
20
76.500000000000
11
280.548276155335
21
79.000000000000
0
LINE
8
LAYER2
62
2
10
280.548276155335
20
81.500000000000
11
280.548276155335
21
84.000000000000
0
LINE
8
LAYER2
62
2
10
280.548276155335
20
86.500000000000
11
280.548276155335
21
89.000000000000
0
LINE
8
LAYER2
62
2
10
280.548276155335
20
91.500000000000
11
280.548276155335
21
94.000000000000
0
LINE
8
LAYER2
62
2
10
282.548276155335
20
96.500000000000
11
282.548276155335
21
94.000000000000
0
LINE
8
LAYER2
62
2
10
282.548276155335
20
91.500000000000
11
282.548276155335
21
89.000000000000
0
LINE
8
LAYER2
62
2
10
282.548276155335
20
86.500000000000
11
282.548276155335
21
84.000000000000
0
LINE
8
LAYER2
62
2
10
282.548276155335
20
81.500000000000
11
282.548276155335
21
79.000000000000
0
LINE
8
LAYER2
62
2
10
282.548276155335
20
76.500000000000
11
282.548276155335
21
74.000000000000
0
LINE
8
LAYER2
62
2
10
282.548276155335
20
71.500000000000
11
282.548276155335
21
69.000000000000
0
LINE
8
LAYER2
62
2
10
282.548276155335
20
66.500000000000
11
282.548276155335
21
64.000000000000
0
LINE
8
LAYER2
62
2
10
282.548276155335
20
61.500000000000
11
282.548276155335
21
59.000000000000
0
LINE
8
LAYER2
62
2
10
282.548276155335
20
56.500000000000
11
282.548276155335
21
54.000000000000
0
LINE
8
LAYER2
62
2
10
282.548276155335
20
51.500000000000
11
282.548276155335
21
49.000000000000
0
LINE
8
LAYER2
62
2
10
282.548276155335
20
46.500000000000
11
282.548276155335
21
44.000000000000
0
LINE
8
LAYER2
62
2
10
282.548276155335
20
41.500000000000
11
282.548276155335
21
39.000000000000
0
LINE
8
LAYER2
62
2
10
282.548276155335
20
36.500000000000
11
282.548276155335
21
34.000000000000
0
LINE
8
LAYER2
62
2
10
282.548276155335
20
31.500000000000
11
282.548276155335
21
29.000000000000
0
LINE
8
LAYER2
62
2
10
282.548276155335
20
26.500000000000
11
282.548276155335
21
24.000000000000
0
LINE
8
LAYER2
62
2
10
282.548276155335
20
21.500000000000
11
280.548276155335
21
21.500000000000
0
LINE
8
LAYER2
62
2
10
280.548276155335
20
96.500000000000
11
282.548276155335
21
96.500000000000
0
LINE
8
LAYER2
62
2
10
291.517421096823
20
21.621025057572
11
292.407497094837
21
23.957210991474
0
LINE
8
LAYER2
62
2
10
293.297573092850
20
26.293396925376
11
294.187649090864
21
28.629582859278
0
LINE
8
LAYER2
62
2
10
295.077725088877
20
30.965768793179
11
295.967801086891
21
33.301954727081
0
LINE
8
LAYER2
62
2
10
296.857877084904
20
35.638140660983
11
297.747953082918
21
37.974326594885
0
LINE
8
LAYER2
62
2
10
298.638029080931
20
40.310512528786
11
299.528105078945
21
42.646698462688
0
LINE
8
LAYER2
62
2
10
300.418181076958
20
44.982884396590
11
301.308257074972
21
47.319070330491
0
LINE
8
LAYER2
62
2
10
302.198333072986
20
49.655256264393
11
303.088409070999
21
51.991442198295
0
LINE
8
LAYER2
62
2
10
303.978485069013
20
54.327628132197
11
304.868561067026
21
56.663814066098
0
LINE
8
LAYER2
62
2
10
305.758637065040
20
59.000000000000
11
306.648713063053
21
61.336185933902
0
LINE
8
LAYER2
62
2
10
307.538789061067
20
63.672371867803
11
308.428865059080
21
66.008557801705
0
LINE
8
LAYER2
62
2
10
309.318941057094
20
68.344743735607
11
310.209017055107
21
70.680929669509
0
LINE
8
LAYER2
62
2
10
311.099093053121
20
73.017115603410
11
311.989169051134
21
75.353301537312
0
LINE
8
LAYER2
62
2
10
312.879245049148
20
77.689487471214
11
313.769321047161
21
80.025673405115
0
LINE
8
LAYER2
62
2
10
314.659397045175
20
82.361859339017
11
315.549473043188
21
84.698045272919
0
LINE
8
LAYER2
62
2
10
316.439549041202
20
87.034231206821
11
317.329625039215
21
89.370417140722
0
LINE
8
LAYER2
62
2
10
318.219701037229
20
91.706603074624
11
319.109777035242
21
94.042789008526
0
LINE
8
LAYER2
62
2
10
321.868801780377
20
95.666914144017
11
320.978725782363
21
93.330728210115
0
LINE
8
LAYER2
62
2
10
320.088649784350
20
90.994542276213
11
319.198573786336
21
88.658356342312
0
LINE
8
LAYER2
62
2
10
318.308497788323
20
86.322170408410
11
317.418421790309
21
83.985984474508
0
LINE
8
LAYER2
62
2
10
316.528345792296
20
81.649798540606
11
315.638269794282
21
79.313612606705
0
LINE
8
LAYER2
62
2
10
314.748193796269
20
76.977426672803
11
313.858117798255
21
74.641240738901
0
LINE
8
LAYER2
62
2
10
312.968041800242
20
72.305054805000
11
312.077965802228
21
69.968868871098
0
LINE
8
LAYER2
62
2
10
311.187889804215
20
67.632682937196
11
310.297813806201
21
65.296497003294
0
LINE
8
LAYER2
62
2
10
309.407737808188
20
62.960311069393
11
308.517661810174
21
60.624125135491
0
LINE
8
LAYER2
62
2
10
307.627585812161
20
58.287939201589
11
306.737509814147
21
55.951753267688
0
LINE
8
LAYER2
62
2
10
305.847433816134
20
53.615567333786
11
304.957357818120
21
51.279381399884
0
LINE
8
LAYER2
62
2
10
304.067281820106
20
48.943195465982
11
303.177205822093
21
46.607009532081
0
LINE
8
LAYER2
62
2
10
302.287129824079
20
44.270823598179
11
301.397053826066
21
41.934637664277
0
LINE
8
LAYER2
62
2
10
300.506977828052
20
39.598451730375
11
299.616901830039
21
37.262265796474
0
LINE
8
LAYER2
62
2
10
298.726825832025
20
34.926079862572
11
297.836749834012
21
32.589893928670
0
LINE
8
LAYER2
62
2
10
296.946673835998
20
30.253707994769
11
296.056597837985
21
27.917522060867
0
LINE
8
LAYER2
62
2
10
295.166521839971
20
25.581336126965
11
294.276445841958
21
23.245150193063
0
LINE
8
LAYER2
62
2
10
293.386369843945
20
20.908964259162
11
291.517421096823
21
21.621025057572
0
LINE
8
LAYER2
62
2
10
319.999853033255
20
96.378974942428
11
321.868801780377
21
95.666914144017
0
LINE
8
LAYER2
62
2
10
295.911135651329
20
15.649624429476
11
297.642447667178
21
17.453109584330
0
LINE
8
LAYER2
62
2
10
299.373759683026
20
19.256594739183
11
301.105071698875
21
21.060079894037
0
LINE
8
LAYER2
62
2
10
302.836383714724
20
22.863565048891
11
304.567695730572
21
24.667050203745
0
LINE
8
LAYER2
62
2
10
306.299007746421
20
26.470535358599
11
308.030319762270
21
28.274020513452
0
LINE
8
LAYER2
62
2
10
309.761631778118
20
30.077505668306
11
311.492943793967
21
31.880990823160
0
LINE
8
LAYER2
62
2
10
313.224255809816
20
33.684475978014
11
314.955567825664
21
35.487961132867
0
LINE
8
LAYER2
62
2
10
316.686879841513
20
37.291446287721
11
318.418191857362
21
39.094931442575
0
LINE
8
LAYER2
62
2
10
320.149503873211
20
40.898416597429
11
321.880815889059
21
42.701901752283
0
LINE
8
LAYER2
62
2
10
323.612127904908
20
44.505386907136
11
325.343439920757
21
46.308872061990
0
LINE
8
LAYER2
62
2
10
327.074751936605
20
48.112357216844
11
328.806063952454
21
49.915842371698
0
LINE
8
LAYER2
62
2
10
330.537375968303
20
51.719327526551
11
332.268687984151
21
53.522812681405
0
LINE
8
LAYER2
62
2
10
334.000000000000
20
55.326297836259
11
335.731312015849
21
57.129782991113
0
LINE
8
LAYER2
62
2
10
337.462624031697
20
58.933268145967
11
339.193936047546
21
60.736753300820
0
LINE
8
LAYER2
62
2
10
340.925248063395
20
62.540238455674
11
342.656560079243
21
64.343723610528
0
LINE
8
LAYER2
62
2
10
344.387872095092
20
66.147208765382
11
346.119184110941
21
67.950693920235
0
LINE
8
LAYER2
62
2
10
347.850496126789
20
69.754179075089
11
349.581808142638
21
71.557664229943
0
LINE
8
LAYER2
62
2
10
351.313120158487
20
73.361149384797
11
353.044432174336
21
75.164634539651
0
LINE
8
LAYER2
62
2
10
354.775744190184
20
76.968119694504
11
356.507056206033
21
78.771604849358
0
LINE
8
LAYER2
62
2
10
358.238368221882
20
80.575090004212
11
359.969680237730
21
82.378575159066
0
LINE
8
LAYER2
62
2
10
361.700992253579
20
84.182060313919
11
363.432304269428
21
85.985545468773
0
LINE
8
LAYER2
62
2
10
365.163616285276
20
87.789030623627
11
366.894928301125
21
89.592515778481
0
LINE
8
LAYER2
62
2
10
368.626240316974
20
91.396000933334
11
370.357552332822
21
93.199486088188
0
LINE
8
LAYER2
62
2
10
373.531652472554
20
93.617921630363
11
371.800340456705
21
91.814436475509
0
LINE
8
LAYER2
62
2
10
370.069028440857
20
90.010951320656
11
368.337716425008
21
88.207466165802
0
LINE
8
LAYER2
62
2
10
366.606404409159
20
86.403981010948
11
364.875092393311
21
84.600495856094
0
LINE
8
LAYER2
62
2
10
363.143780377462
20
82.797010701241
11
361.412468361613
21
80.993525546387
0
LINE
8
LAYER2
62
2
10
359.681156345765
20
79.190040391533
11
357.949844329916
21
77.386555236679
0
LINE
8
LAYER2
62
2
10
356.218532314067
20
75.583070081825
11
354.487220298219
21
73.779584926972
0
LINE
8
LAYER2
62
2
10
352.755908282370
20
71.976099772118
11
351.024596266521
21
70.172614617264
0
LINE
8
LAYER2
62
2
10
349.293284250673
20
68.369129462410
11
347.561972234824
21
66.565644307557
0
LINE
8
LAYER2
62
2
10
345.830660218975
20
64.762159152703
11
344.099348203126
21
62.958673997849
0
LINE
8
LAYER2
62
2
10
342.368036187278
20
61.155188842995
11
340.636724171429
21
59.351703688141
0
LINE
8
LAYER2
62
2
10
338.905412155580
20
57.548218533288
11
337.174100139732
21
55.744733378434
0
LINE
8
LAYER2
62
2
10
335.442788123883
20
53.941248223580
11
333.711476108034
21
52.137763068726
0
LINE
8
LAYER2
62
2
10
331.980164092186
20
50.334277913873
11
330.248852076337
21
48.530792759019
0
LINE
8
LAYER2
62
2
10
328.517540060488
20
46.727307604165
11
326.786228044640
21
44.923822449311
0
LINE
8
LAYER2
62
2
10
325.054916028791
20
43.120337294457
11
323.323604012942
21
41.316852139604
0
LINE
8
LAYER2
62
2
10
321.592291997094
20
39.513366984750
11
319.860979981245
21
37.709881829896
0
LINE
8
LAYER2
62
2
10
318.129667965396
20
35.906396675042
11
316.398355949547
21
34.102911520189
0
LINE
8
LAYER2
62
2
10
314.667043933699
20
32.299426365335
11
312.935731917850
21
30.495941210481
0
LINE
8
LAYER2
62
2
10
311.204419902001
20
28.692456055627
11
309.473107886153
21
26.888970900774
0
LINE
8
LAYER2
62
2
10
307.741795870304
20
25.085485745920
11
306.010483854455
21
23.282000591066
0
LINE
8
LAYER2
62
2
10
304.279171838607
20
21.478515436212
11
302.547859822758
21
19.675030281358
0
LINE
8
LAYER2
62
2
10
300.816547806909
20
17.871545126505
11
299.085235791061
21
16.068059971651
0
LINE
8
LAYER2
62
2
10
297.353923775212
20
14.264574816797
11
295.911135651329
21
15.649624429476
0
LINE
8
LAYER2
62
2
10
372.088864348671
20
95.002971243042
11
373.531652472554
21
93.617921630363
0
LINE
8
LAYER2
62
2
10
296.306226764974
20
11.430657123292
11
298.662087592163
21
12.267269197623
0
LINE
8
LAYER2
62
2
10
301.017948419352
20
13.103881271953
11
303.373809246541
21
13.940493346284
0
LINE
8
LAYER2
62
2
10
305.729670073730
20
14.777105420614
11
308.085530900919
21
15.613717494945
0
LINE
8
LAYER2
62
2
10
310.441391728109
20
16.450329569275
11
312.797252555298
21
17.286941643606
0
LINE
8
LAYER2
62
2
10
315.153113382487
20
18.123553717937
11
317.508974209676
21
18.960165792267
0
LINE
8
LAYER2
62
2
10
319.864835036865
20
19.796777866598
11
322.220695864054
21
20.633389940928
0
LINE
8
LAYER2
62
2
10
324.576556691243
20
21.470002015259
11
326.932417518432
21
22.306614089590
0
LINE
8
LAYER2
62
2
10
329.288278345622
20
23.143226163920
11
331.644139172811
21
23.979838238251
0
LINE
8
LAYER2
62
2
10
334.000000000000
20
24.816450312581
11
336.355860827189
21
25.653062386912
0
LINE
8
LAYER2
62
2
10
338.711721654378
20
26.489674461242
11
341.067582481567
21
27.326286535573
0
LINE
8
LAYER2
62
2
10
343.423443308756
20
28.162898609904
11
345.779304135946
21
28.999510684234
0
LINE
8
LAYER2
62
2
10
348.135164963135
20
29.836122758565
11
350.491025790324
21
30.672734832895
0
LINE
8
LAYER2
62
2
10
352.846886617513
20
31.509346907226
11
355.202747444702
21
32.345958981556
0
LINE
8
LAYER2
62
2
10
357.558608271891
20
33.182571055887
11
359.914469099080
21
34.019183130218
0
LINE
8
LAYER2
62
2
10
362.270329926269
20
34.855795204548
11
364.626190753459
21
35.692407278879
0
LINE
8
LAYER2
62
2
10
366.982051580648
20
36.529019353209
11
369.337912407837
21
37.365631427540
0
LINE
8
LAYER2
62
2
10
372.363062894491
20
36.317554840119
11
370.007202067302
21
35.480942765789
0
LINE
8
LAYER2
62
2
10
367.651341240112
20
34.644330691458
11
365.295480412923
21
33.807718617127
0
LINE
8
LAYER2
62
2
10
362.939619585734
20
32.971106542797
11
360.583758758545
21
32.134494468466
0
LINE
8
LAYER2
62
2
10
358.227897931356
20
31.297882394136
11
355.872037104167
21
30.461270319805
0
LINE
8
LAYER2
62
2
10
353.516176276978
20
29.624658245475
11
351.160315449788
21
28.788046171144
0
LINE
8
LAYER2
62
2
10
348.804454622599
20
27.951434096813
11
346.448593795410
21
27.114822022483
0
LINE
8
LAYER2
62
2
10
344.092732968221
20
26.278209948152
11
341.736872141032
21
25.441597873822
0
LINE
8
LAYER2
62
2
10
339.381011313843
20
24.604985799491
11
337.025150486654
21
23.768373725161
0
LINE
8
LAYER2
62
2
10
334.669289659465
20
22.931761650830
11
332.313428832275
21
22.095149576499
0
LINE
8
LAYER2
62
2
10
329.957568005086
20
21.258537502169
11
327.601707177897
21
20.421925427838
0
LINE
8
LAYER2
62
2
10
325.245846350708
20
19.585313353508
11
322.889985523519
21
18.748701279177
0
LINE
8
LAYER2
62
2
10
320.534124696330
20
17.912089204847
11
318.178263869141
21
17.075477130516
0
LINE
8
LAYER2
62
2
10
315.822403041951
20
16.238865056185
11
313.466542214762
21
15.402252981855
0
LINE
8
LAYER2
62
2
10
311.110681387573
20
14.565640907524
11
308.754820560384
21
13.729028833194
0
LINE
8
LAYER2
62
2
10
306.398959733195
20
12.892416758863
11
304.043098906006
21
12.055804684532
0
LINE
8
LAYER2
62
2
10
301.687238078817
20
11.219192610202
11
299.331377251628
21
10.382580535871
0
LINE
8
LAYER2
62
2
10
296.975516424438
20
9.545968461541
11
296.306226764974
21
11.430657123292
0
LINE
8
LAYER2
62
2
10
371.693773235026
20
38.202243501871
11
372.363062894491
21
36.317554840119
0
LINE
8
LAYER3
62
3
10
375.500000000000
20
104.500000000000
11
379.500000000000
21
104.500000000000
0
LINE
8
LAYER3
62
3
10
379.500000000000
20
104.500000000000
11
379.500000000000
21
0.000000000000
0
LINE
8
LAYER3
62
3
10
379.500000000000
20
0.000000000000
11
375.500000000000
21
0.000000000000
0
LINE
8
LAYER3
62
3
10
375.500000000000
20
0.000000000000
11
375.500000000000
21
104.500000000000
0
LINE
8
LAYER3
62
3
10
1.548278808594
20
100.500000000000
11
1.548278808594
21
104.500000000000
0
LINE
8
LAYER3
62
3
10
1.548278808594
20
104.500000000000
11
379.500000000000
21
104.500000000000
0
LINE
8
LAYER3
62
3
10
379.500000000000
20
104.500000000000
11
379.500000000000
21
100.500000000000
0
LINE
8
LAYER3
62
3
10
379.500000000000
20
100.500000000000
11
1.548278808594
21
100.500000000000
0
LINE
8
LAYER3
62
3
10
288.500000000000
20
11.500000000000
11
292.500000000000
21
11.500000000000
0
LINE
8
LAYER3
62
3
10
292.500000000000
20
11.500000000000
11
292.500000000000
21
8.000000000000
0
LINE
8
LAYER3
62
3
10
292.500000000000
20
8.000000000000
11
288.500000000000
21
8.000000000000
0
LINE
8
LAYER3
62
3
10
288.500000000000
20
8.000000000000
11
288.500000000000
21
11.500000000000
0
LINE
8
LAYER3
62
3
10
9.548278808594
20
13.500000000000
11
9.548278808594
21
17.500000000000
0
LINE
8
LAYER3
62
3
10
9.548278808594
20
17.500000000000
11
286.500000000000
21
17.500000000000
0
LINE
8
LAYER3
62
3
10
286.500000000000
20
17.500000000000
11
286.500000000000
21
13.500000000000
0
LINE
8
LAYER3
62
3
10
286.500000000000
20
13.500000000000
11
9.548278808594
21
13.500000000000
0
LINE
8
LAYER4
62
4
10
286.500000000000
20
8.000000000000
11
294.500000000000
21
8.000000000000
0
LINE
8
LAYER4
62
4
10
294.500000000000
20
8.000000000000
11
294.500000000000
21
0.000000000000
0
LINE
8
LAYER4
62
4
10
294.500000000000
20
0.000000000000
11
286.500000000000
21
0.000000000000
0
LINE
8
LAYER4
62
4
10
286.500000000000
20
0.000000000000
11
286.500000000000
21
8.000000000000
0
LINE
8
LAYER4
62
4
10
286.500000000000
20
11.500000000000
11
286.500000000000
21
19.500000000000
0
LINE
8
LAYER4
62
4
10
286.500000000000
20
19.500000000000
11
294.500000000000
21
19.500000000000
0
LINE
8
LAYER4
62
4
10
294.500000000000
20
19.500000000000
11
294.500000000000
21
11.500000000000
0
LINE
8
LAYER4
62
4
10
294.500000000000
20
11.500000000000
11
286.500000000000
21
11.500000000000
0
LINE
8
LAYER4
62
4
10
1.548278808594
20
11.500000000000
11
1.548278808594
21
19.500000000000
0
LINE
8
LAYER4
62
4
10
1.548278808594
20
19.500000000000
11
9.548278808594
21
19.500000000000
0
LINE
8
LAYER4
62
4
10
9.548278808594
20
19.500000000000
11
9.548278808594
21
11.500000000000
0
LINE
8
LAYER4
62
4
10
9.548278808594
20
11.500000000000
11
1.548278808594
21
11.500000000000
0
LINE
8
LAYER4
62
4
10
144.024139404297
20
8.500000000000
11
144.024139404297
21
13.500000000000
0
LINE
8
LAYER4
62
4
10
144.024139404297
20
13.500000000000
11
152.024139404297
21
13.500000000000
0
LINE
8
LAYER4
62
4
10
152.024139404297
20
13.500000000000
11
152.024139404297
21
8.500000000000
0
LINE
8
LAYER4
62
4
10
152.024139404297
20
8.500000000000
11
144.024139404297
21
8.500000000000
0
LINE
8
LAYER5
62
5
10
372.000000000000
20
97.000000000000
11
376.000000000000
21
97.000000000000
0
LINE
8
LAYER5
62
5
10
376.000000000000
20
97.000000000000
11
376.000000000000
21
0.000000000000
0
LINE
8
LAYER5
62
5
10
376.000000000000
20
0.000000000000
11
372.000000000000
21
0.000000000000
0
LINE
8
LAYER5
62
5
10
372.000000000000
20
0.000000000000
11
372.000000000000
21
97.000000000000
0
LINE
8
LAYER5
62
5
10
1.548278808594
20
97.000000000000
11
1.548278808594
21
101.000000000000
0
LINE
8
LAYER5
62
5
10
1.548278808594
20
101.000000000000
11
376.500000000000
21
101.000000000000
0
LINE
8
LAYER5
62
5
10
376.500000000000
20
101.000000000000
11
376.500000000000
21
97.000000000000
0
LINE
8
LAYER5
62
5
10
376.500000000000
20
97.000000000000
11
1.548278808594
21
97.000000000000
0
LINE
8
LAYER5
62
5
10
288.500000000000
20
11.500000000000
11
292.500000000000
21
11.500000000000
0
LINE
8
LAYER5
62
5
10
292.500000000000
20
11.500000000000
11
292.500000000000
21
8.000000000000
0
LINE
8
LAYER5
62
5
10
292.500000000000
20
8.000000000000
11
288.500000000000
21
8.000000000000
0
LINE
8
LAYER5
62
5
10
288.500000000000
20
8.000000000000
11
288.500000000000
21
11.500000000000
0
LINE
8
LAYER5
62
5
10
9.548278808594
20
13.500000000000
11
9.548278808594
21
17.500000000000
0
LINE
8
LAYER5
62
5
10
9.548278808594
20
17.500000000000
11
286.500000000000
21
17.500000000000
0
LINE
8
LAYER5
62
5
10
286.500000000000
20
17.500000000000
11
286.500000000000
21
13.500000000000
0
LINE
8
LAYER5
62
5
10
286.500000000000
20
13.500000000000
11
9.548278808594
21
13.500000000000
0
LINE
8
LAYER6
62
6
10
277.768676757812
20
9.500000000000
11
277.768676757812
21
13.500000000000
0
LINE
8
LAYER6
62
6
10
277.768676757812
20
13.500000000000
11
275.068679809570
21
13.500000000000
0
LINE
8
LAYER6
62
6
10
275.068679809570
20
13.500000000000
11
275.068679809570
21
9.500000000000
0
LINE
8
LAYER6
62
6
10
275.068679809570
20
9.500000000000
11
277.768676757812
21
9.500000000000
0
LINE
8
LAYER6
62
6
10
266.337356567383
20
9.500000000000
11
266.337356567383
21
13.500000000000
0
LINE
8
LAYER6
62
6
10
266.337356567383
20
13.500000000000
11
263.637359619141
21
13.500000000000
0
LINE
8
LAYER6
62
6
10
263.637359619141
20
13.500000000000
11
263.637359619141
21
9.500000000000
0
LINE
8
LAYER6
62
6
10
263.637359619141
20
9.500000000000
11
266.337356567383
21
9.500000000000
0
LINE
8
LAYER6
62
6
10
254.906036376953
20
9.500000000000
11
254.906036376953
21
13.500000000000
0
LINE
8
LAYER6
62
6
10
254.906036376953
20
13.500000000000
11
252.206031799316
21
13.500000000000
0
LINE
8
LAYER6
62
6
10
252.206031799316
20
13.500000000000
11
252.206031799316
21
9.500000000000
0
LINE
8
LAYER6
62
6
10
252.206031799316
20
9.500000000000
11
254.906036376953
21
9.500000000000
0
LINE
8
LAYER6
62
6
10
243.474716186523
20
9.500000000000
11
243.474716186523
21
13.500000000000
0
LINE
8
LAYER6
62
6
10
243.474716186523
20
13.500000000000
11
240.774719238281
21
13.500000000000
0
LINE
8
LAYER6
62
6
10
240.774719238281
20
13.500000000000
11
240.774719238281
21
9.500000000000
0
LINE
8
LAYER6
62
6
10
240.774719238281
20
9.500000000000
11
243.474716186523
21
9.500000000000
0
LINE
8
LAYER6
62
6
10
232.043395996094
20
9.500000000000
11
232.043395996094
21
13.500000000000
0
LINE
8
LAYER6
62
6
10
232.043395996094
20
13.500000000000
11
229.343383789062
21
13.500000000000
0
LINE
8
LAYER6
62
6
10
229.343383789062
20
13.500000000000
11
229.343383789062
21
9.500000000000
0
LINE
8
LAYER6
62
6
10
229.343383789062
20
9.500000000000
11
232.043395996094
21
9.500000000000
0
LINE
8
LAYER6
62
6
10
220.612075805664
20
9.500000000000
11
220.612075805664
21
13.500000000000
0
LINE
8
LAYER6
62
6
10
220.612075805664
20
13.500000000000
11
217.912063598633
21
13.500000000000
0
LINE
8
LAYER6
62
6
10
217.912063598633
20
13.500000000000
11
217.912063598633
21
9.500000000000
0
LINE
8
LAYER6
62
6
10
217.912063598633
20
9.500000000000
11
220.612075805664
21
9.500000000000
0
LINE
8
LAYER6
62
6
10
209.180740356445
20
9.500000000000
11
209.180740356445
21
13.500000000000
0
LINE
8
LAYER6
62
6
10
209.180740356445
20
13.500000000000
11
206.480743408203
21
13.500000000000
0
LINE
8
LAYER6
62
6
10
206.480743408203
20
13.500000000000
11
206.480743408203
21
9.500000000000
0
LINE
8
LAYER6
62
6
10
206.480743408203
20
9.500000000000
11
209.180740356445
21
9.500000000000
0
LINE
8
LAYER6
62
6
10
197.749420166016
20
9.500000000000
11
197.749420166016
21
13.500000000000
0
LINE
8
LAYER6
62
6
10
197.749420166016
20
13.500000000000
11
195.049423217773
21
13.500000000000
0
LINE
8
LAYER6
62
6
10
195.049423217773
20
13.500000000000
11
195.049423217773
21
9.500000000000
0
LINE
8
LAYER6
62
6
10
195.049423217773
20
9.500000000000
11
197.749420166016
21
9.500000000000
0
LINE
8
LAYER6
62
6
10
186.318099975586
20
9.500000000000
11
186.318099975586
21
13.500000000000
0
LINE
8
LAYER6
62
6
10
186.318099975586
20
13.500000000000
11
183.618103027344
21
13.500000000000
0
LINE
8
LAYER6
62
6
10
183.618103027344
20
13.500000000000
11
183.618103027344
21
9.500000000000
0
LINE
8
LAYER6
62
6
10
183.618103027344
20
9.500000000000
11
186.318099975586
21
9.500000000000
0
LINE
8
LAYER6
62
6
10
174.886779785156
20
9.500000000000
11
174.886779785156
21
13.500000000000
0
LINE
8
LAYER6
62
6
10
174.886779785156
20
13.500000000000
11
172.186782836914
21
13.500000000000
0
LINE
8
LAYER6
62
6
10
172.186782836914
20
13.500000000000
11
172.186782836914
21
9.500000000000
0
LINE
8
LAYER6
62
6
10
172.186782836914
20
9.500000000000
11
174.886779785156
21
9.500000000000
0
LINE
8
LAYER6
62
6
10
163.455459594727
20
9.500000000000
11
163.455459594727
21
13.500000000000
0
LINE
8
LAYER6
62
6
10
163.455459594727
20
13.500000000000
11
160.755462646484
21
13.500000000000
0
LINE
8
LAYER6
62
6
10
160.755462646484
20
13.500000000000
11
160.755462646484
21
9.500000000000
0
LINE
8
LAYER6
62
6
10
160.755462646484
20
9.500000000000
11
163.455459594727
21
9.500000000000
0
LINE
8
LAYER6
62
6
10
135.292816162109
20
9.500000000000
11
135.292816162109
21
13.500000000000
0
LINE
8
LAYER6
62
6
10
135.292816162109
20
13.500000000000
11
132.592819213867
21
13.500000000000
0
LINE
8
LAYER6
62
6
10
132.592819213867
20
13.500000000000
11
132.592819213867
21
9.500000000000
0
LINE
8
LAYER6
62
6
10
132.592819213867
20
9.500000000000
11
135.292816162109
21
9.500000000000
0
LINE
8
LAYER6
62
6
10
123.861480712891
20
9.500000000000
11
123.861480712891
21
13.500000000000
0
LINE
8
LAYER6
62
6
10
123.861480712891
20
13.500000000000
11
121.161499023438
21
13.500000000000
0
LINE
8
LAYER6
62
6
10
121.161499023438
20
13.500000000000
11
121.161499023438
21
9.500000000000
0
LINE
8
LAYER6
62
6
10
121.161499023438
20
9.500000000000
11
123.861480712891
21
9.500000000000
0
LINE
8
LAYER6
62
6
10
112.430175781250
20
9.500000000000
11
112.430175781250
21
13.500000000000
0
LINE
8
LAYER6
62
6
10
112.430175781250
20
13.500000000000
11
109.730163574219
21
13.500000000000
0
LINE
8
LAYER6
62
6
10
109.730163574219
20
13.500000000000
11
109.730163574219
21
9.500000000000
0
LINE
8
LAYER6
62
6
10
109.730163574219
20
9.500000000000
11
112.430175781250
21
9.500000000000
0
LINE
8
LAYER6
62
6
10
100.998840332031
20
9.500000000000
11
100.998840332031
21
13.500000000000
0
LINE
8
LAYER6
62
6
10
100.998840332031
20
13.500000000000
11
98.298858642578
21
13.500000000000
0
LINE
8
LAYER6
62
6
10
98.298858642578
20
13.500000000000
11
98.298858642578
21
9.500000000000
0
LINE
8
LAYER6
62
6
10
98.298858642578
20
9.500000000000
11
100.998840332031
21
9.500000000000
0
LINE
8
LAYER6
62
6
10
89.567535400391
20
9.500000000000
11
89.567535400391
21
13.500000000000
0
LINE
8
LAYER6
62
6
10
89.567535400391
20
13.500000000000
11
86.867523193359
21
13.500000000000
0
LINE
8
LAYER6
62
6
10
86.867523193359
20
13.500000000000
11
86.867523193359
21
9.500000000000
0
LINE
8
LAYER6
62
6
10
86.867523193359
20
9.500000000000
11
89.567535400391
21
9.500000000000
0
LINE
8
LAYER6
62
6
10
78.136199951172
20
9.500000000000
11
78.136199951172
21
13.500000000000
0
LINE
8
LAYER6
62
6
10
78.136199951172
20
13.500000000000
11
75.436218261719
21
13.500000000000
0
LINE
8
LAYER6
62
6
10
75.436218261719
20
13.500000000000
11
75.436218261719
21
9.500000000000
0
LINE
8
LAYER6
62
6
10
75.436218261719
20
9.500000000000
11
78.136199951172
21
9.500000000000
0
LINE
8
LAYER6
62
6
10
66.704895019531
20
9.500000000000
11
66.704895019531
21
13.500000000000
0
LINE
8
LAYER6
62
6
10
66.704895019531
20
13.500000000000
11
64.004882812500
21
13.500000000000
0
LINE
8
LAYER6
62
6
10
64.004882812500
20
13.500000000000
11
64.004882812500
21
9.500000000000
0
LINE
8
LAYER6
62
6
10
64.004882812500
20
9.500000000000
11
66.704895019531
21
9.500000000000
0
LINE
8
LAYER6
62
6
10
55.273559570312
20
9.500000000000
11
55.273559570312
21
13.500000000000
0
LINE
8
LAYER6
62
6
10
55.273559570312
20
13.500000000000
11
52.573577880859
21
13.500000000000
0
LINE
8
LAYER6
62
6
10
52.573577880859
20
13.500000000000
11
52.573577880859
21
9.500000000000
0
LINE
8
LAYER6
62
6
10
52.573577880859
20
9.500000000000
11
55.273559570312
21
9.500000000000
0
LINE
8
LAYER6
62
6
10
43.842254638672
20
9.500000000000
11
43.842254638672
21
13.500000000000
0
LINE
8
LAYER6
62
6
10
43.842254638672
20
13.500000000000
11
41.142242431641
21
13.500000000000
0
LINE
8
LAYER6
62
6
10
41.142242431641
20
13.500000000000
11
41.142242431641
21
9.500000000000
0
LINE
8
LAYER6
62
6
10
41.142242431641
20
9.500000000000
11
43.842254638672
21
9.500000000000
0
LINE
8
LAYER6
62
6
10
32.410919189453
20
9.500000000000
11
32.410919189453
21
13.500000000000
0
LINE
8
LAYER6
62
6
10
32.410919189453
20
13.500000000000
11
29.710906982422
21
13.500000000000
0
LINE
8
LAYER6
62
6
10
29.710906982422
20
13.500000000000
11
29.710906982422
21
9.500000000000
0
LINE
8
LAYER6
62
6
10
29.710906982422
20
9.500000000000
11
32.410919189453
21
9.500000000000
0
LINE
8
LAYER6
62
6
10
20.979583740234
20
9.500000000000
11
20.979583740234
21
13.500000000000
0
LINE
8
LAYER6
62
6
10
20.979583740234
20
13.500000000000
11
18.279602050781
21
13.500000000000
0
LINE
8
LAYER6
62
6
10
18.279602050781
20
13.500000000000
11
18.279602050781
21
9.500000000000
0
LINE
8
LAYER6
62
6
10
18.279602050781
20
9.500000000000
11
20.979583740234
21
9.500000000000
0
LINE
8
LAYER7
62
7
10
380.000000000000
20
105.000000000000
11
380.000000000000
21
0.000000000000
0
LINE
8
LAYER7
62
7
10
380.000000000000
20
0.000000000000
11
0.000000000000
21
0.000000000000
0
LINE
8
LAYER7
62
7
10
0.000000000000
20
0.000000000000
11
0.000000000000
21
105.000000000000
0
LINE
8
LAYER7
62
7
10
0.000000000000
20
105.000000000000
11
380.000000000000
21
105.000000000000
0
LINE
8
LAYER9
62
8
10
2.548278808594
20
59.000000000000
11
309.000000000000
21
59.000000000000
0
ARC
8
LAYER9
62
8
10
309.000000000000
20
34.000000000000
40
25.000000000000
50
0.000000000000
51
90.000000000000
0
LINE
8
LAYER9
62
8
10
334.000000000000
20
34.000000000000
11
334.000000000000
21
0.000000000000
0
LINE
8
LAYER14
62
8
10
16.773276155335
20
75.400000000000
11
17.110776155335
21
76.000000000000
0
LINE
8
LAYER14
62
8
10
17.110776155335
20
76.000000000000
11
17.110776155335
21
74.000000000000
0
LINE
8
LAYER14
62
8
10
16.885776155335
20
74.000000000000
11
17.335776155335
21
74.000000000000
0
LINE
8
LAYER14
62
8
10
41.548276155335
20
75.700000000000
11
41.717026155335
21
76.000000000000
0
LINE
8
LAYER14
62
8
10
41.717026155335
20
76.000000000000
11
42.504526155335
21
76.000000000000
0
LINE
8
LAYER14
62
8
10
42.504526155335
20
76.000000000000
11
42.673276155335
21
75.700000000000
0
LINE
8
LAYER14
62
8
10
42.673276155335
20
75.700000000000
11
42.673276155335
21
75.400000000000
0
LINE
8
LAYER14
62
8
10
42.673276155335
20
75.400000000000
11
41.548276155335
21
74.300000000000
0
LINE
8
LAYER14
62
8
10
41.548276155335
20
74.300000000000
11
41.548276155335
21
74.000000000000
0
LINE
8
LAYER14
62
8
10
41.548276155335
20
74.000000000000
11
42.673276155335
21
74.000000000000
0
LINE
8
LAYER14
62
8
10
42.673276155335
20
74.000000000000
11
42.673276155335
21
74.300000000000
0
LINE
8
LAYER14
62
8
10
66.548276155335
20
75.800000000000
11
66.660776155335
21
76.000000000000
0
LINE
8
LAYER14
62
8
10
66.660776155335
20
76.000000000000
11
67.560776155335
21
76.000000000000
0
LINE
8
LAYER14
62
8
10
67.560776155335
20
76.000000000000
11
67.673276155335
21
75.800000000000
0
LINE
8
LAYER14
62
8
10
67.673276155335
20
75.800000000000
11
67.673276155335
21
75.400000000000
0
LINE
8
LAYER14
62
8
10
67.673276155335
20
75.400000000000
11
67.560776155335
21
75.200000000000
0
LINE
8
LAYER14
62
8
10
67.560776155335
20
75.200000000000
11
66.885776155335
21
75.200000000000
0
LINE
8
LAYER14
62
8
10
67.560776155335
20
75.200000000000
11
67.673276155335
21
75.000000000000
0
LINE
8
LAYER14
62
8
10
67.673276155335
20
75.000000000000
11
67.673276155335
21
74.200000000000
0
LINE
8
LAYER14
62
8
10
67.673276155335
20
74.200000000000
11
67.560776155335
21
74.000000000000
0
LINE
8
LAYER14
62
8
10
67.560776155335
20
74.000000000000
11
66.660776155335
21
74.000000000000
0
LINE
8
LAYER14
62
8
10
66.660776155335
20
74.000000000000
11
66.548276155335
21
74.200000000000
0
LINE
8
LAYER14
62
8
10
91.548276155335
20
76.000000000000
11
91.548276155335
21
75.200000000000
0
LINE
8
LAYER14
62
8
10
91.548276155335
20
75.200000000000
11
92.673276155335
21
75.200000000000
0
LINE
8
LAYER14
62
8
10
92.673276155335
20
76.000000000000
11
92.673276155335
21
74.000000000000
0
LINE
8
LAYER14
62
8
10
117.673276155335
20
76.000000000000
11
116.548276155335
21
76.000000000000
0
LINE
8
LAYER14
62
8
10
116.548276155335
20
76.000000000000
11
116.548276155335
21
75.200000000000
0
LINE
8
LAYER14
62
8
10
116.548276155335
20
75.200000000000
11
117.504526155335
21
75.200000000000
0
LINE
8
LAYER14
62
8
10
117.504526155335
20
75.200000000000
11
117.673276155335
21
74.900000000000
0
LINE
8
LAYER14
62
8
10
117.673276155335
20
74.900000000000
11
117.673276155335
21
74.300000000000
0
LINE
8
LAYER14
62
8
10
117.673276155335
20
74.300000000000
11
117.504526155335
21
74.000000000000
0
LINE
8
LAYER14
62
8
10
117.504526155335
20
74.000000000000
11
116.717026155335
21
74.000000000000
0
LINE
8
LAYER14
62
8
10
116.717026155335
20
74.000000000000
11
116.548276155335
21
74.300000000000
0
LINE
8
LAYER14
62
8
10
142.673276155335
20
76.000000000000
11
142.504526155335
21
76.000000000000
0
LINE
8
LAYER14
62
8
10
142.504526155335
20
76.000000000000
11
141.548276155335
21
75.500000000000
0
LINE
8
LAYER14
62
8
10
141.548276155335
20
75.500000000000
11
141.548276155335
21
74.300000000000
0
LINE
8
LAYER14
62
8
10
141.548276155335
20
74.300000000000
11
141.717026155335
21
74.000000000000
0
LINE
8
LAYER14
62
8
10
141.717026155335
20
74.000000000000
11
142.504526155335
21
74.000000000000
0
LINE
8
LAYER14
62
8
10
142.504526155335
20
74.000000000000
11
142.673276155335
21
74.300000000000
0
LINE
8
LAYER14
62
8
10
142.673276155335
20
74.300000000000
11
142.673276155335
21
74.900000000000
0
LINE
8
LAYER14
62
8
10
142.673276155335
20
74.900000000000
11
142.504526155335
21
75.200000000000
0
LINE
8
LAYER14
62
8
10
142.504526155335
20
75.200000000000
11
141.548276155335
21
75.200000000000
0
LINE
8
LAYER14
62
8
10
166.548276155335
20
75.700000000000
11
166.548276155335
21
76.000000000000
0
LINE
8
LAYER14
62
8
10
166.548276155335
20
76.000000000000
11
167.673276155335
21
76.000000000000
0
LINE
8
LAYER14
62
8
10
167.673276155335
20
76.000000000000
11
167.673276155335
21
75.300000000000
0
LINE
8
LAYER14
62
8
10
167.673276155335
20
75.300000000000
11
167.110776155335
21
74.800000000000
0
LINE
8
LAYER14
62
8
10
167.110776155335
20
74.800000000000
11
167.110776155335
21
74.000000000000
0
LINE
8
LAYER14
62
8
10
191.717026155335
20
74.000000000000
11
191.548276155335
21
74.300000000000
0
LINE
8
LAYER14
62
8
10
191.548276155335
20
74.300000000000
11
191.548276155335
21
74.700000000000
0
LINE
8
LAYER14
62
8
10
191.548276155335
20
74.700000000000
11
191.717026155335
21
75.000000000000
0
LINE
8
LAYER14
62
8
10
191.717026155335
20
75.000000000000
11
192.504526155335
21
75.000000000000
0
LINE
8
LAYER14
62
8
10
192.504526155335
20
75.000000000000
11
192.673276155335
21
74.700000000000
0
LINE
8
LAYER14
62
8
10
192.673276155335
20
74.700000000000
11
192.673276155335
21
74.300000000000
0
LINE
8
LAYER14
62
8
10
192.673276155335
20
74.300000000000
11
192.504526155335
21
74.000000000000
0
LINE
8
LAYER14
62
8
10
192.504526155335
20
74.000000000000
11
191.717026155335
21
74.000000000000
0
LINE
8
LAYER14
62
8
10
191.717026155335
20
75.000000000000
11
191.548276155335
21
75.300000000000
0
LINE
8
LAYER14
62
8
10
191.548276155335
20
75.300000000000
11
191.548276155335
21
75.700000000000
0
LINE
8
LAYER14
62
8
10
191.548276155335
20
75.700000000000
11
191.717026155335
21
76.000000000000
0
LINE
8
LAYER14
62
8
10
191.717026155335
20
76.000000000000
11
192.504526155335
21
76.000000000000
0
LINE
8
LAYER14
62
8
10
192.504526155335
20
76.000000000000
11
192.673276155335
21
75.700000000000
0
LINE
8
LAYER14
62
8
10
192.673276155335
20
75.700000000000
11
192.673276155335
21
75.300000000000
0
LINE
8
LAYER14
62
8
10
192.673276155335
20
75.300000000000
11
192.504526155335
21
75.000000000000
0
LINE
8
LAYER14
62
8
10
216.548276155335
20
74.300000000000
11
216.717026155335
21
74.000000000000
0
LINE
8
LAYER14
62
8
10
216.717026155335
20
74.000000000000
11
217.504526155335
21
74.000000000000
0
LINE
8
LAYER14
62
8
10
217.504526155335
20
74.000000000000
11
217.673276155335
21
74.300000000000
0
LINE
8
LAYER14
62
8
10
217.673276155335
20
74.300000000000
11
217.673276155335
21
75.700000000000
0
LINE
8
LAYER14
62
8
10
217.673276155335
20
75.700000000000
11
217.504526155335
21
76.000000000000
0
LINE
8
LAYER14
62
8
10
217.504526155335
20
76.000000000000
11
216.717026155335
21
76.000000000000
0
LINE
8
LAYER14
62
8
10
216.717026155335
20
76.000000000000
11
216.548276155335
21
75.700000000000
0
LINE
8
LAYER14
62
8
10
216.548276155335
20
75.700000000000
11
216.548276155335
21
75.300000000000
0
LINE
8
LAYER14
62
8
10
216.548276155335
20
75.300000000000
11
216.717026155335
21
75.000000000000
0
LINE
8
LAYER14
62
8
10
216.717026155335
20
75.000000000000
11
217.673276155335
21
75.000000000000
0
LINE
8
LAYER14
62
8
10
241.773276155335
20
75.400000000000
11
242.110776155335
21
76.000000000000
0
LINE
8
LAYER14
62
8
10
242.110776155335
20
76.000000000000
11
242.110776155335
21
74.000000000000
0
LINE
8
LAYER14
62
8
10
241.885776155335
20
74.000000000000
11
242.335776155335
21
74.000000000000
0
LINE
8
LAYER14
62
8
10
243.329526155335
20
74.000000000000
11
243.892026155335
21
74.000000000000
0
LINE
8
LAYER14
62
8
10
243.892026155335
20
74.000000000000
11
244.173276155335
21
74.500000000000
0
LINE
8
LAYER14
62
8
10
244.173276155335
20
74.500000000000
11
244.173276155335
21
75.500000000000
0
LINE
8
LAYER14
62
8
10
244.173276155335
20
75.500000000000
11
243.892026155335
21
76.000000000000
0
LINE
8
LAYER14
62
8
10
243.892026155335
20
76.000000000000
11
243.329526155335
21
76.000000000000
0
LINE
8
LAYER14
62
8
10
243.329526155335
20
76.000000000000
11
243.048276155335
21
75.500000000000
0
LINE
8
LAYER14
62
8
10
243.048276155335
20
75.500000000000
11
243.048276155335
21
74.500000000000
0
LINE
8
LAYER14
62
8
10
243.048276155335
20
74.500000000000
11
243.329526155335
21
74.000000000000
0
LINE
8
LAYER14
62
8
10
266.773276155335
20
75.400000000000
11
267.110776155335
21
76.000000000000
0
LINE
8
LAYER14
62
8
10
267.110776155335
20
76.000000000000
11
267.110776155335
21
74.000000000000
0
LINE
8
LAYER14
62
8
10
266.885776155335
20
74.000000000000
11
267.335776155335
21
74.000000000000
0
LINE
8
LAYER14
62
8
10
268.273276155335
20
75.400000000000
11
268.610776155335
21
76.000000000000
0
LINE
8
LAYER14
62
8
10
268.610776155335
20
76.000000000000
11
268.610776155335
21
74.000000000000
0
LINE
8
LAYER14
62
8
10
268.385776155335
20
74.000000000000
11
268.835776155335
21
74.000000000000
0
LINE
8
LAYER14
62
8
10
291.878456610187
20
75.400000000000
11
292.215956610187
21
76.000000000000
0
LINE
8
LAYER14
62
8
10
292.215956610187
20
76.000000000000
11
292.215956610187
21
74.000000000000
0
LINE
8
LAYER14
62
8
10
291.990956610187
20
74.000000000000
11
292.440956610187
21
74.000000000000
0
LINE
8
LAYER14
62
8
10
293.153456610187
20
75.700000000000
11
293.322206610187
21
76.000000000000
0
LINE
8
LAYER14
62
8
10
293.322206610187
20
76.000000000000
11
294.109706610187
21
76.000000000000
0
LINE
8
LAYER14
62
8
10
294.109706610187
20
76.000000000000
11
294.278456610187
21
75.700000000000
0
LINE
8
LAYER14
62
8
10
294.278456610187
20
75.700000000000
11
294.278456610187
21
75.400000000000
0
LINE
8
LAYER14
62
8
10
294.278456610187
20
75.400000000000
11
293.153456610187
21
74.300000000000
0
LINE
8
LAYER14
62
8
10
293.153456610187
20
74.300000000000
11
293.153456610187
21
74.000000000000
0
LINE
8
LAYER14
62
8
10
293.153456610187
20
74.000000000000
11
294.278456610187
21
74.000000000000
0
LINE
8
LAYER14
62
8
10
294.278456610187
20
74.000000000000
11
294.278456610187
21
74.300000000000
0
LINE
8
LAYER14
62
8
10
321.768225025745
20
73.382463137000
11
322.105725025745
21
73.982463137000
0
LINE
8
LAYER14
62
8
10
322.105725025745
20
73.982463137000
11
322.105725025745
21
71.982463137000
0
LINE
8
LAYER14
62
8
10
321.880725025744
20
71.982463137000
11
322.330725025745
21
71.982463137000
0
LINE
8
LAYER14
62
8
10
323.043225025745
20
73.782463137000
11
323.155725025745
21
73.982463137000
0
LINE
8
LAYER14
62
8
10
323.155725025745
20
73.982463137000
11
324.055725025744
21
73.982463137000
0
LINE
8
LAYER14
62
8
10
324.055725025744
20
73.982463137000
11
324.168225025745
21
73.782463137000
0
LINE
8
LAYER14
62
8
10
324.168225025745
20
73.782463137000
11
324.168225025745
21
73.382463137000
0
LINE
8
LAYER14
62
8
10
324.168225025745
20
73.382463137000
11
324.055725025744
21
73.182463137000
0
LINE
8
LAYER14
62
8
10
324.055725025744
20
73.182463137000
11
323.380725025744
21
73.182463137000
0
LINE
8
LAYER14
62
8
10
324.055725025744
20
73.182463137000
11
324.168225025745
21
72.982463137000
0
LINE
8
LAYER14
62
8
10
324.168225025745
20
72.982463137000
11
324.168225025745
21
72.182463137000
0
LINE
8
LAYER14
62
8
10
324.168225025745
20
72.182463137000
11
324.055725025744
21
71.982463137000
0
LINE
8
LAYER14
62
8
10
324.055725025744
20
71.982463137000
11
323.155725025745
21
71.982463137000
0
LINE
8
LAYER14
62
8
10
323.155725025745
20
71.982463137000
11
323.043225025745
21
72.182463137000
0
LINE
8
LAYER14
62
8
10
348.313264066489
20
43.891620120355
11
348.650764066489
21
44.491620120355
0
LINE
8
LAYER14
62
8
10
348.650764066489
20
44.491620120355
11
348.650764066489
21
42.491620120355
0
LINE
8
LAYER14
62
8
10
348.425764066489
20
42.491620120355
11
348.875764066489
21
42.491620120355
0
LINE
8
LAYER14
62
8
10
349.588264066489
20
44.491620120355
11
349.588264066489
21
43.691620120355
0
LINE
8
LAYER14
62
8
10
349.588264066489
20
43.691620120355
11
350.713264066489
21
43.691620120355
0
LINE
8
LAYER14
62
8
10
350.713264066489
20
44.491620120355
11
350.713264066489
21
42.491620120355
0
LINE
8
LAYER14
62
8
10
349.225000000000
20
15.400000000000
11
349.562500000000
21
16.000000000000
0
LINE
8
LAYER14
62
8
10
349.562500000000
20
16.000000000000
11
349.562500000000
21
14.000000000000
0
LINE
8
LAYER14
62
8
10
349.337500000000
20
14.000000000000
11
349.787500000000
21
14.000000000000
0
LINE
8
LAYER14
62
8
10
351.625000000000
20
16.000000000000
11
350.500000000000
21
16.000000000000
0
LINE
8
LAYER14
62
8
10
350.500000000000
20
16.000000000000
11
350.500000000000
21
15.200000000000
0
LINE
8
LAYER14
62
8
10
350.500000000000
20
15.200000000000
11
351.456250000000
21
15.200000000000
0
LINE
8
LAYER14
62
8
10
351.456250000000
20
15.200000000000
11
351.625000000000
21
14.900000000000
0
LINE
8
LAYER14
62
8
10
351.625000000000
20
14.900000000000
11
351.625000000000
21
14.300000000000
0
LINE
8
LAYER14
62
8
10
351.625000000000
20
14.300000000000
11
351.456250000000
21
14.000000000000
0
LINE
8
LAYER14
62
8
10
351.456250000000
20
14.000000000000
11
350.668750000000
21
14.000000000000
0
LINE
8
LAYER14
62
8
10
350.668750000000
20
14.000000000000
11
350.500000000000
21
14.300000000000
0
LINE
8
LAYER15
62
8
10
0.000000000000
20
105.000000000000
11
380.000000000000
21
105.000000000000
0
LINE
8
LAYER15
62
8
10
380.000000000000
20
105.000000000000
11
390.000000000000
21
115.000000000000
0
LINE
8
LAYER15
62
8
10
390.000000000000
20
115.000000000000
11
0.000000000000
21
115.000000000000
0
LINE
8
LAYER15
62
8
10
0.000000000000
20
115.000000000000
11
0.000000000000
21
105.000000000000
0
LINE
8
LAYER15
62
8
10
380.000000000000
20
105.000000000000
11
380.000000000000
21
0.000000000000
0
LINE
8
LAYER15
62
8
10
380.000000000000
20
0.000000000000
11
390.000000000000
21
0.000000000000
0
LINE
8
LAYER15
62
8
10
390.000000000000
20
0.000000000000
11
390.000000000000
21
115.000000000000
0
LINE
8
LAYER15
62
8
10
390.000000000000
20
115.000000000000
11
380.000000000000
21
105.000000000000
0
ENDSEC
0
EOF
