0
SECTION
2
HEADER
0
ENDSEC
0
SECTION
2
TABLES
0
TABLE
2
LTYPE
70
1
0
LTYPE
2
CONTINUOUS
70
64
3
Solid line
72
65
73
0
40
0
0
ENDTAB
0
TABLE
2
LAYER
70
20
0
LAYER
2
COMPASS
70
0
62
1
6
CONTINUOUS
0
LAYER
2
LAYER1
70
0
62
1
6
CONTINUOUS
0
LAYER
2
LAYER2
70
0
62
1
6
CONTINUOUS
0
LAYER
2
LAYER3
70
0
62
1
6
CONTINUOUS
0
LAYER
2
LAYER4
70
0
62
1
6
CONTINUOUS
0
LAYER
2
LAYER5
70
0
62
1
6
CONTINUOUS
0
LAYER
2
LAYER6
70
0
62
1
6
CONTINUOUS
0
LAYER
2
LAYER7
70
0
62
1
6
CONTINUOUS
0
LAYER
2
LAYER8
70
0
62
1
6
CONTINUOUS
0
LAYER
2
LAYER9
70
0
62
1
6
CONTINUOUS
0
LAYER
2
LAYER10
70
0
62
1
6
CONTINUOUS
0
LAYER
2
LAYER11
70
0
62
1
6
CONTINUOUS
0
LAYER
2
LAYER12
70
0
62
1
6
CONTINUOUS
0
LAYER
2
LAYER13
70
0
62
1
6
CONTINUOUS
0
LAYER
2
LAYER14
70
0
62
1
6
CONTINUOUS
0
LAYER
2
LAYER15
70
0
62
1
6
CONTINUOUS
0
LAYER
2
LAYER16
70
0
62
1
6
CONTINUOUS
0
LAYER
2
LAYER17
70
0
62
1
6
CONTINUOUS
0
LAYER
2
LAYER18
70
0
62
1
6
CONTINUOUS
0
LAYER
2
LAYER19
70
0
62
1
6
CONTINUOUS
0
ENDTAB
0
ENDSEC
0
SECTION
2
BLOCKS
0
ENDSEC
0
SECTION
2
ENTITIES
0
LINE
8
LAYER1
62
1
10
85.500000000000
20
1.000004632448
11
4.500000000000
21
1.000004632448
0
LINE
8
LAYER1
62
1
10
87.500000000000
20
29.000004632448
11
87.500000000000
21
8.000004632448
0
LINE
8
LAYER1
62
1
10
87.500000000000
20
8.000004632448
11
85.500000000000
21
8.000004632448
0
LINE
8
LAYER1
62
1
10
85.500000000000
20
8.000004632448
11
85.500000000000
21
1.000004632448
0
LINE
8
LAYER1
62
1
10
4.500000000000
20
1.000004632448
11
4.500000000000
21
29.000004632448
0
LINE
8
LAYER1
62
1
10
4.500000000000
20
29.000004632448
11
87.500000000000
21
29.000004632448
0
LINE
8
LAYER1
62
1
10
87.500000000000
20
26.000004632448
11
4.500000000000
21
26.000004632448
0
LINE
8
LAYER1
62
1
10
87.500000000000
20
54.000004632448
11
87.500000000000
21
26.000004632448
0
LINE
8
LAYER1
62
1
10
4.500000000000
20
26.000004632448
11
4.500000000000
21
54.000004632448
0
LINE
8
LAYER1
62
1
10
4.500000000000
20
54.000004632448
11
87.500000000000
21
54.000004632448
0
LINE
8
LAYER1
62
1
10
87.500000000000
20
51.000004632448
11
4.500000000000
21
51.000004632448
0
LINE
8
LAYER1
62
1
10
87.500000000000
20
79.000004632448
11
87.500000000000
21
51.000004632448
0
LINE
8
LAYER1
62
1
10
4.500000000000
20
51.000004632448
11
4.500000000000
21
79.000004632448
0
LINE
8
LAYER1
62
1
10
4.500000000000
20
79.000004632448
11
87.500000000000
21
79.000004632448
0
LINE
8
LAYER1
62
1
10
87.500000000000
20
76.000004632448
11
4.500000000000
21
76.000004632448
0
LINE
8
LAYER1
62
1
10
87.500000000000
20
104.000004632448
11
87.500000000000
21
76.000004632448
0
LINE
8
LAYER1
62
1
10
4.500000000000
20
76.000004632448
11
4.500000000000
21
104.000004632448
0
LINE
8
LAYER1
62
1
10
4.500000000000
20
104.000004632448
11
87.500000000000
21
104.000004632448
0
LINE
8
LAYER1
62
1
10
87.500000000000
20
101.000004632448
11
4.500000000000
21
101.000004632448
0
LINE
8
LAYER1
62
1
10
87.500000000000
20
129.000004632448
11
87.500000000000
21
101.000004632448
0
LINE
8
LAYER1
62
1
10
4.500000000000
20
101.000004632448
11
4.500000000000
21
129.000004632448
0
LINE
8
LAYER1
62
1
10
4.500000000000
20
129.000004632448
11
87.500000000000
21
129.000004632448
0
LINE
8
LAYER1
62
1
10
87.500000000000
20
126.000004632448
11
4.500000000000
21
126.000004632448
0
LINE
8
LAYER1
62
1
10
87.500000000000
20
138.104572903362
11
87.500000000000
21
126.000004632448
0
LINE
8
LAYER1
62
1
10
4.500000000000
20
126.000004632448
11
4.500000000000
21
172.265876904723
0
LINE
8
LAYER1
62
1
10
4.500000000000
20
172.265876904723
11
87.500000000000
21
138.104572903362
0
LINE
8
LAYER1
62
1
10
87.500000000000
20
134.860409296803
11
4.500000000000
21
169.021713298165
0
LINE
8
LAYER1
62
1
10
85.500000000000
20
146.313181794148
11
85.500000000000
21
139.500000000000
0
LINE
8
LAYER1
62
1
10
85.500000000000
20
139.500000000000
11
87.500000000000
21
139.500000000000
0
LINE
8
LAYER1
62
1
10
87.500000000000
20
139.500000000000
11
87.500000000000
21
134.860409296803
0
LINE
8
LAYER1
62
1
10
4.500000000000
20
169.021713298165
11
4.500000000000
21
228.500000000000
0
LINE
8
LAYER1
62
1
10
4.500000000000
20
228.500000000000
11
7.582757765080
21
228.500000000000
0
LINE
8
LAYER1
62
1
10
7.582757765080
20
228.500000000000
11
85.500000000000
21
146.313181794148
0
LINE
8
LAYER1
62
1
10
85.500000000000
20
141.952750971183
11
4.500000000000
21
227.391250637313
0
LINE
8
LAYER1
62
1
10
91.460698385928
20
147.500000000000
11
85.500000000000
21
147.500000000000
0
LINE
8
LAYER1
62
1
10
85.500000000000
20
147.500000000000
11
85.500000000000
21
141.952750971183
0
LINE
8
LAYER1
62
1
10
4.500000000000
20
227.391250637313
11
4.500000000000
21
228.500000000000
0
LINE
8
LAYER1
62
1
10
4.500000000000
20
228.500000000000
11
66.810721722952
21
228.500000000000
0
LINE
8
LAYER1
62
1
10
66.810721722952
20
228.500000000000
11
91.460698385928
21
147.500000000000
0
LINE
8
LAYER1
62
1
10
88.324857223890
20
147.500000000000
11
63.674880560914
21
228.500000000000
0
LINE
8
LAYER1
62
1
10
105.000000000000
20
145.500000000000
11
93.500000000000
21
145.500000000000
0
LINE
8
LAYER1
62
1
10
93.500000000000
20
145.500000000000
11
93.500000000000
21
147.500000000000
0
LINE
8
LAYER1
62
1
10
93.500000000000
20
147.500000000000
11
88.324857223890
21
147.500000000000
0
LINE
8
LAYER1
62
1
10
63.674880560914
20
228.500000000000
11
105.000000000000
21
228.500000000000
0
LINE
8
LAYER1
62
1
10
105.000000000000
20
228.500000000000
11
105.000000000000
21
145.500000000000
0
LINE
8
LAYER1
62
1
10
102.000000000000
20
145.500000000000
11
102.000000000000
21
228.500000000000
0
LINE
8
LAYER1
62
1
10
130.000000000000
20
145.500000000000
11
102.000000000000
21
145.500000000000
0
LINE
8
LAYER1
62
1
10
102.000000000000
20
228.500000000000
11
130.000000000000
21
228.500000000000
0
LINE
8
LAYER1
62
1
10
130.000000000000
20
228.500000000000
11
130.000000000000
21
145.500000000000
0
LINE
8
LAYER1
62
1
10
127.000000000000
20
145.500000000000
11
127.000000000000
21
228.500000000000
0
LINE
8
LAYER1
62
1
10
155.000000000000
20
145.500000000000
11
127.000000000000
21
145.500000000000
0
LINE
8
LAYER1
62
1
10
127.000000000000
20
228.500000000000
11
155.000000000000
21
228.500000000000
0
LINE
8
LAYER1
62
1
10
155.000000000000
20
228.500000000000
11
155.000000000000
21
145.500000000000
0
LINE
8
LAYER1
62
1
10
152.000000000000
20
145.500000000000
11
152.000000000000
21
228.500000000000
0
LINE
8
LAYER1
62
1
10
180.000000000000
20
145.500000000000
11
152.000000000000
21
145.500000000000
0
LINE
8
LAYER1
62
1
10
152.000000000000
20
228.500000000000
11
180.000000000000
21
228.500000000000
0
LINE
8
LAYER1
62
1
10
180.000000000000
20
228.500000000000
11
180.000000000000
21
145.500000000000
0
LINE
8
LAYER1
62
1
10
177.000000000000
20
145.500000000000
11
177.000000000000
21
228.500000000000
0
LINE
8
LAYER1
62
1
10
205.000000000000
20
145.500000000000
11
177.000000000000
21
145.500000000000
0
LINE
8
LAYER1
62
1
10
177.000000000000
20
228.500000000000
11
205.000000000000
21
228.500000000000
0
LINE
8
LAYER1
62
1
10
205.000000000000
20
228.500000000000
11
205.000000000000
21
145.500000000000
0
LINE
8
LAYER1
62
1
10
202.000000000000
20
145.500000000000
11
202.000000000000
21
228.500000000000
0
LINE
8
LAYER1
62
1
10
230.000000000000
20
145.500000000000
11
202.000000000000
21
145.500000000000
0
LINE
8
LAYER1
62
1
10
202.000000000000
20
228.500000000000
11
230.000000000000
21
228.500000000000
0
LINE
8
LAYER1
62
1
10
230.000000000000
20
228.500000000000
11
230.000000000000
21
145.500000000000
0
LINE
8
LAYER1
62
1
10
227.000000000000
20
145.500000000000
11
227.000000000000
21
228.500000000000
0
LINE
8
LAYER1
62
1
10
255.000000000000
20
147.500000000000
11
247.000000000000
21
147.500000000000
0
LINE
8
LAYER1
62
1
10
247.000000000000
20
147.500000000000
11
247.000000000000
21
145.500000000000
0
LINE
8
LAYER1
62
1
10
247.000000000000
20
145.500000000000
11
227.000000000000
21
145.500000000000
0
LINE
8
LAYER1
62
1
10
227.000000000000
20
228.500000000000
11
255.000000000000
21
228.500000000000
0
LINE
8
LAYER1
62
1
10
255.000000000000
20
228.500000000000
11
255.000000000000
21
226.000000000000
0
LINE
8
LAYER1
62
1
10
255.000000000000
20
223.500000000000
11
255.000000000000
21
221.000000000000
0
LINE
8
LAYER1
62
1
10
255.000000000000
20
218.500000000000
11
255.000000000000
21
216.000000000000
0
LINE
8
LAYER1
62
1
10
255.000000000000
20
213.500000000000
11
255.000000000000
21
211.000000000000
0
LINE
8
LAYER1
62
1
10
255.000000000000
20
208.500000000000
11
255.000000000000
21
206.000000000000
0
LINE
8
LAYER1
62
1
10
255.000000000000
20
203.500000000000
11
255.000000000000
21
201.000000000000
0
LINE
8
LAYER1
62
1
10
255.000000000000
20
198.500000000000
11
255.000000000000
21
196.000000000000
0
LINE
8
LAYER1
62
1
10
255.000000000000
20
193.500000000000
11
255.000000000000
21
191.000000000000
0
LINE
8
LAYER1
62
1
10
255.000000000000
20
188.500000000000
11
255.000000000000
21
186.000000000000
0
LINE
8
LAYER1
62
1
10
255.000000000000
20
183.500000000000
11
255.000000000000
21
181.000000000000
0
LINE
8
LAYER1
62
1
10
255.000000000000
20
178.500000000000
11
255.000000000000
21
176.000000000000
0
LINE
8
LAYER1
62
1
10
255.000000000000
20
173.500000000000
11
255.000000000000
21
171.000000000000
0
LINE
8
LAYER1
62
1
10
255.000000000000
20
168.500000000000
11
255.000000000000
21
166.000000000000
0
LINE
8
LAYER1
62
1
10
255.000000000000
20
163.500000000000
11
255.000000000000
21
161.000000000000
0
LINE
8
LAYER1
62
1
10
255.000000000000
20
158.500000000000
11
255.000000000000
21
156.000000000000
0
LINE
8
LAYER1
62
1
10
255.000000000000
20
153.500000000000
11
255.000000000000
21
151.000000000000
0
LINE
8
LAYER1
62
1
10
255.000000000000
20
148.500000000000
11
255.000000000000
21
147.500000000000
0
LINE
8
LAYER2
62
2
10
83.500000000000
20
4.000004632448
11
81.000000000000
21
4.000004632448
0
LINE
8
LAYER2
62
2
10
78.500000000000
20
4.000004632448
11
76.000000000000
21
4.000004632448
0
LINE
8
LAYER2
62
2
10
73.500000000000
20
4.000004632448
11
71.000000000000
21
4.000004632448
0
LINE
8
LAYER2
62
2
10
68.500000000000
20
4.000004632448
11
66.000000000000
21
4.000004632448
0
LINE
8
LAYER2
62
2
10
63.500000000000
20
4.000004632448
11
61.000000000000
21
4.000004632448
0
LINE
8
LAYER2
62
2
10
58.500000000000
20
4.000004632448
11
56.000000000000
21
4.000004632448
0
LINE
8
LAYER2
62
2
10
53.500000000000
20
4.000004632448
11
51.000000000000
21
4.000004632448
0
LINE
8
LAYER2
62
2
10
48.500000000000
20
4.000004632448
11
46.000000000000
21
4.000004632448
0
LINE
8
LAYER2
62
2
10
43.500000000000
20
4.000004632448
11
41.000000000000
21
4.000004632448
0
LINE
8
LAYER2
62
2
10
38.500000000000
20
4.000004632448
11
36.000000000000
21
4.000004632448
0
LINE
8
LAYER2
62
2
10
33.500000000000
20
4.000004632448
11
31.000000000000
21
4.000004632448
0
LINE
8
LAYER2
62
2
10
28.500000000000
20
4.000004632448
11
26.000000000000
21
4.000004632448
0
LINE
8
LAYER2
62
2
10
23.500000000000
20
4.000004632448
11
21.000000000000
21
4.000004632448
0
LINE
8
LAYER2
62
2
10
18.500000000000
20
4.000004632448
11
16.000000000000
21
4.000004632448
0
LINE
8
LAYER2
62
2
10
13.500000000000
20
4.000004632448
11
11.000000000000
21
4.000004632448
0
LINE
8
LAYER2
62
2
10
8.500000000000
20
6.000004632448
11
11.000000000000
21
6.000004632448
0
LINE
8
LAYER2
62
2
10
13.500000000000
20
6.000004632448
11
16.000000000000
21
6.000004632448
0
LINE
8
LAYER2
62
2
10
18.500000000000
20
6.000004632448
11
21.000000000000
21
6.000004632448
0
LINE
8
LAYER2
62
2
10
23.500000000000
20
6.000004632448
11
26.000000000000
21
6.000004632448
0
LINE
8
LAYER2
62
2
10
28.500000000000
20
6.000004632448
11
31.000000000000
21
6.000004632448
0
LINE
8
LAYER2
62
2
10
33.500000000000
20
6.000004632448
11
36.000000000000
21
6.000004632448
0
LINE
8
LAYER2
62
2
10
38.500000000000
20
6.000004632448
11
41.000000000000
21
6.000004632448
0
LINE
8
LAYER2
62
2
10
43.500000000000
20
6.000004632448
11
46.000000000000
21
6.000004632448
0
LINE
8
LAYER2
62
2
10
48.500000000000
20
6.000004632448
11
51.000000000000
21
6.000004632448
0
LINE
8
LAYER2
62
2
10
53.500000000000
20
6.000004632448
11
56.000000000000
21
6.000004632448
0
LINE
8
LAYER2
62
2
10
58.500000000000
20
6.000004632448
11
61.000000000000
21
6.000004632448
0
LINE
8
LAYER2
62
2
10
63.500000000000
20
6.000004632448
11
66.000000000000
21
6.000004632448
0
LINE
8
LAYER2
62
2
10
68.500000000000
20
6.000004632448
11
71.000000000000
21
6.000004632448
0
LINE
8
LAYER2
62
2
10
73.500000000000
20
6.000004632448
11
76.000000000000
21
6.000004632448
0
LINE
8
LAYER2
62
2
10
78.500000000000
20
6.000004632448
11
81.000000000000
21
6.000004632448
0
LINE
8
LAYER2
62
2
10
83.500000000000
20
6.000004632448
11
83.500000000000
21
4.000004632448
0
LINE
8
LAYER2
62
2
10
8.500000000000
20
4.000004632448
11
8.500000000000
21
6.000004632448
0
LINE
8
LAYER2
62
2
10
83.500000000000
20
29.000004632448
11
81.000000000000
21
29.000004632448
0
LINE
8
LAYER2
62
2
10
78.500000000000
20
29.000004632448
11
76.000000000000
21
29.000004632448
0
LINE
8
LAYER2
62
2
10
73.500000000000
20
29.000004632448
11
71.000000000000
21
29.000004632448
0
LINE
8
LAYER2
62
2
10
68.500000000000
20
29.000004632448
11
66.000000000000
21
29.000004632448
0
LINE
8
LAYER2
62
2
10
63.500000000000
20
29.000004632448
11
61.000000000000
21
29.000004632448
0
LINE
8
LAYER2
62
2
10
58.500000000000
20
29.000004632448
11
56.000000000000
21
29.000004632448
0
LINE
8
LAYER2
62
2
10
53.500000000000
20
29.000004632448
11
51.000000000000
21
29.000004632448
0
LINE
8
LAYER2
62
2
10
48.500000000000
20
29.000004632448
11
46.000000000000
21
29.000004632448
0
LINE
8
LAYER2
62
2
10
43.500000000000
20
29.000004632448
11
41.000000000000
21
29.000004632448
0
LINE
8
LAYER2
62
2
10
38.500000000000
20
29.000004632448
11
36.000000000000
21
29.000004632448
0
LINE
8
LAYER2
62
2
10
33.500000000000
20
29.000004632448
11
31.000000000000
21
29.000004632448
0
LINE
8
LAYER2
62
2
10
28.500000000000
20
29.000004632448
11
26.000000000000
21
29.000004632448
0
LINE
8
LAYER2
62
2
10
23.500000000000
20
29.000004632448
11
21.000000000000
21
29.000004632448
0
LINE
8
LAYER2
62
2
10
18.500000000000
20
29.000004632448
11
16.000000000000
21
29.000004632448
0
LINE
8
LAYER2
62
2
10
13.500000000000
20
29.000004632448
11
11.000000000000
21
29.000004632448
0
LINE
8
LAYER2
62
2
10
8.500000000000
20
31.000004632448
11
11.000000000000
21
31.000004632448
0
LINE
8
LAYER2
62
2
10
13.500000000000
20
31.000004632448
11
16.000000000000
21
31.000004632448
0
LINE
8
LAYER2
62
2
10
18.500000000000
20
31.000004632448
11
21.000000000000
21
31.000004632448
0
LINE
8
LAYER2
62
2
10
23.500000000000
20
31.000004632448
11
26.000000000000
21
31.000004632448
0
LINE
8
LAYER2
62
2
10
28.500000000000
20
31.000004632448
11
31.000000000000
21
31.000004632448
0
LINE
8
LAYER2
62
2
10
33.500000000000
20
31.000004632448
11
36.000000000000
21
31.000004632448
0
LINE
8
LAYER2
62
2
10
38.500000000000
20
31.000004632448
11
41.000000000000
21
31.000004632448
0
LINE
8
LAYER2
62
2
10
43.500000000000
20
31.000004632448
11
46.000000000000
21
31.000004632448
0
LINE
8
LAYER2
62
2
10
48.500000000000
20
31.000004632448
11
51.000000000000
21
31.000004632448
0
LINE
8
LAYER2
62
2
10
53.500000000000
20
31.000004632448
11
56.000000000000
21
31.000004632448
0
LINE
8
LAYER2
62
2
10
58.500000000000
20
31.000004632448
11
61.000000000000
21
31.000004632448
0
LINE
8
LAYER2
62
2
10
63.500000000000
20
31.000004632448
11
66.000000000000
21
31.000004632448
0
LINE
8
LAYER2
62
2
10
68.500000000000
20
31.000004632448
11
71.000000000000
21
31.000004632448
0
LINE
8
LAYER2
62
2
10
73.500000000000
20
31.000004632448
11
76.000000000000
21
31.000004632448
0
LINE
8
LAYER2
62
2
10
78.500000000000
20
31.000004632448
11
81.000000000000
21
31.000004632448
0
LINE
8
LAYER2
62
2
10
83.500000000000
20
31.000004632448
11
83.500000000000
21
29.000004632448
0
LINE
8
LAYER2
62
2
10
8.500000000000
20
29.000004632448
11
8.500000000000
21
31.000004632448
0
LINE
8
LAYER2
62
2
10
83.500000000000
20
54.000004632448
11
81.000000000000
21
54.000004632448
0
LINE
8
LAYER2
62
2
10
78.500000000000
20
54.000004632448
11
76.000000000000
21
54.000004632448
0
LINE
8
LAYER2
62
2
10
73.500000000000
20
54.000004632448
11
71.000000000000
21
54.000004632448
0
LINE
8
LAYER2
62
2
10
68.500000000000
20
54.000004632448
11
66.000000000000
21
54.000004632448
0
LINE
8
LAYER2
62
2
10
63.500000000000
20
54.000004632448
11
61.000000000000
21
54.000004632448
0
LINE
8
LAYER2
62
2
10
58.500000000000
20
54.000004632448
11
56.000000000000
21
54.000004632448
0
LINE
8
LAYER2
62
2
10
53.500000000000
20
54.000004632448
11
51.000000000000
21
54.000004632448
0
LINE
8
LAYER2
62
2
10
48.500000000000
20
54.000004632448
11
46.000000000000
21
54.000004632448
0
LINE
8
LAYER2
62
2
10
43.500000000000
20
54.000004632448
11
41.000000000000
21
54.000004632448
0
LINE
8
LAYER2
62
2
10
38.500000000000
20
54.000004632448
11
36.000000000000
21
54.000004632448
0
LINE
8
LAYER2
62
2
10
33.500000000000
20
54.000004632448
11
31.000000000000
21
54.000004632448
0
LINE
8
LAYER2
62
2
10
28.500000000000
20
54.000004632448
11
26.000000000000
21
54.000004632448
0
LINE
8
LAYER2
62
2
10
23.500000000000
20
54.000004632448
11
21.000000000000
21
54.000004632448
0
LINE
8
LAYER2
62
2
10
18.500000000000
20
54.000004632448
11
16.000000000000
21
54.000004632448
0
LINE
8
LAYER2
62
2
10
13.500000000000
20
54.000004632448
11
11.000000000000
21
54.000004632448
0
LINE
8
LAYER2
62
2
10
8.500000000000
20
56.000004632448
11
11.000000000000
21
56.000004632448
0
LINE
8
LAYER2
62
2
10
13.500000000000
20
56.000004632448
11
16.000000000000
21
56.000004632448
0
LINE
8
LAYER2
62
2
10
18.500000000000
20
56.000004632448
11
21.000000000000
21
56.000004632448
0
LINE
8
LAYER2
62
2
10
23.500000000000
20
56.000004632448
11
26.000000000000
21
56.000004632448
0
LINE
8
LAYER2
62
2
10
28.500000000000
20
56.000004632448
11
31.000000000000
21
56.000004632448
0
LINE
8
LAYER2
62
2
10
33.500000000000
20
56.000004632448
11
36.000000000000
21
56.000004632448
0
LINE
8
LAYER2
62
2
10
38.500000000000
20
56.000004632448
11
41.000000000000
21
56.000004632448
0
LINE
8
LAYER2
62
2
10
43.500000000000
20
56.000004632448
11
46.000000000000
21
56.000004632448
0
LINE
8
LAYER2
62
2
10
48.500000000000
20
56.000004632448
11
51.000000000000
21
56.000004632448
0
LINE
8
LAYER2
62
2
10
53.500000000000
20
56.000004632448
11
56.000000000000
21
56.000004632448
0
LINE
8
LAYER2
62
2
10
58.500000000000
20
56.000004632448
11
61.000000000000
21
56.000004632448
0
LINE
8
LAYER2
62
2
10
63.500000000000
20
56.000004632448
11
66.000000000000
21
56.000004632448
0
LINE
8
LAYER2
62
2
10
68.500000000000
20
56.000004632448
11
71.000000000000
21
56.000004632448
0
LINE
8
LAYER2
62
2
10
73.500000000000
20
56.000004632448
11
76.000000000000
21
56.000004632448
0
LINE
8
LAYER2
62
2
10
78.500000000000
20
56.000004632448
11
81.000000000000
21
56.000004632448
0
LINE
8
LAYER2
62
2
10
83.500000000000
20
56.000004632448
11
83.500000000000
21
54.000004632448
0
LINE
8
LAYER2
62
2
10
8.500000000000
20
54.000004632448
11
8.500000000000
21
56.000004632448
0
LINE
8
LAYER2
62
2
10
83.500000000000
20
79.000004632448
11
81.000000000000
21
79.000004632448
0
LINE
8
LAYER2
62
2
10
78.500000000000
20
79.000004632448
11
76.000000000000
21
79.000004632448
0
LINE
8
LAYER2
62
2
10
73.500000000000
20
79.000004632448
11
71.000000000000
21
79.000004632448
0
LINE
8
LAYER2
62
2
10
68.500000000000
20
79.000004632448
11
66.000000000000
21
79.000004632448
0
LINE
8
LAYER2
62
2
10
63.500000000000
20
79.000004632448
11
61.000000000000
21
79.000004632448
0
LINE
8
LAYER2
62
2
10
58.500000000000
20
79.000004632448
11
56.000000000000
21
79.000004632448
0
LINE
8
LAYER2
62
2
10
53.500000000000
20
79.000004632448
11
51.000000000000
21
79.000004632448
0
LINE
8
LAYER2
62
2
10
48.500000000000
20
79.000004632448
11
46.000000000000
21
79.000004632448
0
LINE
8
LAYER2
62
2
10
43.500000000000
20
79.000004632448
11
41.000000000000
21
79.000004632448
0
LINE
8
LAYER2
62
2
10
38.500000000000
20
79.000004632448
11
36.000000000000
21
79.000004632448
0
LINE
8
LAYER2
62
2
10
33.500000000000
20
79.000004632448
11
31.000000000000
21
79.000004632448
0
LINE
8
LAYER2
62
2
10
28.500000000000
20
79.000004632448
11
26.000000000000
21
79.000004632448
0
LINE
8
LAYER2
62
2
10
23.500000000000
20
79.000004632448
11
21.000000000000
21
79.000004632448
0
LINE
8
LAYER2
62
2
10
18.500000000000
20
79.000004632448
11
16.000000000000
21
79.000004632448
0
LINE
8
LAYER2
62
2
10
13.500000000000
20
79.000004632448
11
11.000000000000
21
79.000004632448
0
LINE
8
LAYER2
62
2
10
8.500000000000
20
81.000004632448
11
11.000000000000
21
81.000004632448
0
LINE
8
LAYER2
62
2
10
13.500000000000
20
81.000004632448
11
16.000000000000
21
81.000004632448
0
LINE
8
LAYER2
62
2
10
18.500000000000
20
81.000004632448
11
21.000000000000
21
81.000004632448
0
LINE
8
LAYER2
62
2
10
23.500000000000
20
81.000004632448
11
26.000000000000
21
81.000004632448
0
LINE
8
LAYER2
62
2
10
28.500000000000
20
81.000004632448
11
31.000000000000
21
81.000004632448
0
LINE
8
LAYER2
62
2
10
33.500000000000
20
81.000004632448
11
36.000000000000
21
81.000004632448
0
LINE
8
LAYER2
62
2
10
38.500000000000
20
81.000004632448
11
41.000000000000
21
81.000004632448
0
LINE
8
LAYER2
62
2
10
43.500000000000
20
81.000004632448
11
46.000000000000
21
81.000004632448
0
LINE
8
LAYER2
62
2
10
48.500000000000
20
81.000004632448
11
51.000000000000
21
81.000004632448
0
LINE
8
LAYER2
62
2
10
53.500000000000
20
81.000004632448
11
56.000000000000
21
81.000004632448
0
LINE
8
LAYER2
62
2
10
58.500000000000
20
81.000004632448
11
61.000000000000
21
81.000004632448
0
LINE
8
LAYER2
62
2
10
63.500000000000
20
81.000004632448
11
66.000000000000
21
81.000004632448
0
LINE
8
LAYER2
62
2
10
68.500000000000
20
81.000004632448
11
71.000000000000
21
81.000004632448
0
LINE
8
LAYER2
62
2
10
73.500000000000
20
81.000004632448
11
76.000000000000
21
81.000004632448
0
LINE
8
LAYER2
62
2
10
78.500000000000
20
81.000004632448
11
81.000000000000
21
81.000004632448
0
LINE
8
LAYER2
62
2
10
83.500000000000
20
81.000004632448
11
83.500000000000
21
79.000004632448
0
LINE
8
LAYER2
62
2
10
8.500000000000
20
79.000004632448
11
8.500000000000
21
81.000004632448
0
LINE
8
LAYER2
62
2
10
83.500000000000
20
104.000004632448
11
81.000000000000
21
104.000004632448
0
LINE
8
LAYER2
62
2
10
78.500000000000
20
104.000004632448
11
76.000000000000
21
104.000004632448
0
LINE
8
LAYER2
62
2
10
73.500000000000
20
104.000004632448
11
71.000000000000
21
104.000004632448
0
LINE
8
LAYER2
62
2
10
68.500000000000
20
104.000004632448
11
66.000000000000
21
104.000004632448
0
LINE
8
LAYER2
62
2
10
63.500000000000
20
104.000004632448
11
61.000000000000
21
104.000004632448
0
LINE
8
LAYER2
62
2
10
58.500000000000
20
104.000004632448
11
56.000000000000
21
104.000004632448
0
LINE
8
LAYER2
62
2
10
53.500000000000
20
104.000004632448
11
51.000000000000
21
104.000004632448
0
LINE
8
LAYER2
62
2
10
48.500000000000
20
104.000004632448
11
46.000000000000
21
104.000004632448
0
LINE
8
LAYER2
62
2
10
43.500000000000
20
104.000004632448
11
41.000000000000
21
104.000004632448
0
LINE
8
LAYER2
62
2
10
38.500000000000
20
104.000004632448
11
36.000000000000
21
104.000004632448
0
LINE
8
LAYER2
62
2
10
33.500000000000
20
104.000004632448
11
31.000000000000
21
104.000004632448
0
LINE
8
LAYER2
62
2
10
28.500000000000
20
104.000004632448
11
26.000000000000
21
104.000004632448
0
LINE
8
LAYER2
62
2
10
23.500000000000
20
104.000004632448
11
21.000000000000
21
104.000004632448
0
LINE
8
LAYER2
62
2
10
18.500000000000
20
104.000004632448
11
16.000000000000
21
104.000004632448
0
LINE
8
LAYER2
62
2
10
13.500000000000
20
104.000004632448
11
11.000000000000
21
104.000004632448
0
LINE
8
LAYER2
62
2
10
8.500000000000
20
106.000004632448
11
11.000000000000
21
106.000004632448
0
LINE
8
LAYER2
62
2
10
13.500000000000
20
106.000004632448
11
16.000000000000
21
106.000004632448
0
LINE
8
LAYER2
62
2
10
18.500000000000
20
106.000004632448
11
21.000000000000
21
106.000004632448
0
LINE
8
LAYER2
62
2
10
23.500000000000
20
106.000004632448
11
26.000000000000
21
106.000004632448
0
LINE
8
LAYER2
62
2
10
28.500000000000
20
106.000004632448
11
31.000000000000
21
106.000004632448
0
LINE
8
LAYER2
62
2
10
33.500000000000
20
106.000004632448
11
36.000000000000
21
106.000004632448
0
LINE
8
LAYER2
62
2
10
38.500000000000
20
106.000004632448
11
41.000000000000
21
106.000004632448
0
LINE
8
LAYER2
62
2
10
43.500000000000
20
106.000004632448
11
46.000000000000
21
106.000004632448
0
LINE
8
LAYER2
62
2
10
48.500000000000
20
106.000004632448
11
51.000000000000
21
106.000004632448
0
LINE
8
LAYER2
62
2
10
53.500000000000
20
106.000004632448
11
56.000000000000
21
106.000004632448
0
LINE
8
LAYER2
62
2
10
58.500000000000
20
106.000004632448
11
61.000000000000
21
106.000004632448
0
LINE
8
LAYER2
62
2
10
63.500000000000
20
106.000004632448
11
66.000000000000
21
106.000004632448
0
LINE
8
LAYER2
62
2
10
68.500000000000
20
106.000004632448
11
71.000000000000
21
106.000004632448
0
LINE
8
LAYER2
62
2
10
73.500000000000
20
106.000004632448
11
76.000000000000
21
106.000004632448
0
LINE
8
LAYER2
62
2
10
78.500000000000
20
106.000004632448
11
81.000000000000
21
106.000004632448
0
LINE
8
LAYER2
62
2
10
83.500000000000
20
106.000004632448
11
83.500000000000
21
104.000004632448
0
LINE
8
LAYER2
62
2
10
8.500000000000
20
104.000004632448
11
8.500000000000
21
106.000004632448
0
LINE
8
LAYER2
62
2
10
83.500000000000
20
129.000004632448
11
81.000000000000
21
129.000004632448
0
LINE
8
LAYER2
62
2
10
78.500000000000
20
129.000004632448
11
76.000000000000
21
129.000004632448
0
LINE
8
LAYER2
62
2
10
73.500000000000
20
129.000004632448
11
71.000000000000
21
129.000004632448
0
LINE
8
LAYER2
62
2
10
68.500000000000
20
129.000004632448
11
66.000000000000
21
129.000004632448
0
LINE
8
LAYER2
62
2
10
63.500000000000
20
129.000004632448
11
61.000000000000
21
129.000004632448
0
LINE
8
LAYER2
62
2
10
58.500000000000
20
129.000004632448
11
56.000000000000
21
129.000004632448
0
LINE
8
LAYER2
62
2
10
53.500000000000
20
129.000004632448
11
51.000000000000
21
129.000004632448
0
LINE
8
LAYER2
62
2
10
48.500000000000
20
129.000004632448
11
46.000000000000
21
129.000004632448
0
LINE
8
LAYER2
62
2
10
43.500000000000
20
129.000004632448
11
41.000000000000
21
129.000004632448
0
LINE
8
LAYER2
62
2
10
38.500000000000
20
129.000004632448
11
36.000000000000
21
129.000004632448
0
LINE
8
LAYER2
62
2
10
33.500000000000
20
129.000004632448
11
31.000000000000
21
129.000004632448
0
LINE
8
LAYER2
62
2
10
28.500000000000
20
129.000004632448
11
26.000000000000
21
129.000004632448
0
LINE
8
LAYER2
62
2
10
23.500000000000
20
129.000004632448
11
21.000000000000
21
129.000004632448
0
LINE
8
LAYER2
62
2
10
18.500000000000
20
129.000004632448
11
16.000000000000
21
129.000004632448
0
LINE
8
LAYER2
62
2
10
13.500000000000
20
129.000004632448
11
11.000000000000
21
129.000004632448
0
LINE
8
LAYER2
62
2
10
8.500000000000
20
131.000004632448
11
11.000000000000
21
131.000004632448
0
LINE
8
LAYER2
62
2
10
13.500000000000
20
131.000004632448
11
16.000000000000
21
131.000004632448
0
LINE
8
LAYER2
62
2
10
18.500000000000
20
131.000004632448
11
21.000000000000
21
131.000004632448
0
LINE
8
LAYER2
62
2
10
23.500000000000
20
131.000004632448
11
26.000000000000
21
131.000004632448
0
LINE
8
LAYER2
62
2
10
28.500000000000
20
131.000004632448
11
31.000000000000
21
131.000004632448
0
LINE
8
LAYER2
62
2
10
33.500000000000
20
131.000004632448
11
36.000000000000
21
131.000004632448
0
LINE
8
LAYER2
62
2
10
38.500000000000
20
131.000004632448
11
41.000000000000
21
131.000004632448
0
LINE
8
LAYER2
62
2
10
43.500000000000
20
131.000004632448
11
46.000000000000
21
131.000004632448
0
LINE
8
LAYER2
62
2
10
48.500000000000
20
131.000004632448
11
51.000000000000
21
131.000004632448
0
LINE
8
LAYER2
62
2
10
53.500000000000
20
131.000004632448
11
56.000000000000
21
131.000004632448
0
LINE
8
LAYER2
62
2
10
58.500000000000
20
131.000004632448
11
61.000000000000
21
131.000004632448
0
LINE
8
LAYER2
62
2
10
63.500000000000
20
131.000004632448
11
66.000000000000
21
131.000004632448
0
LINE
8
LAYER2
62
2
10
68.500000000000
20
131.000004632448
11
71.000000000000
21
131.000004632448
0
LINE
8
LAYER2
62
2
10
73.500000000000
20
131.000004632448
11
76.000000000000
21
131.000004632448
0
LINE
8
LAYER2
62
2
10
78.500000000000
20
131.000004632448
11
81.000000000000
21
131.000004632448
0
LINE
8
LAYER2
62
2
10
83.500000000000
20
131.000004632448
11
83.500000000000
21
129.000004632448
0
LINE
8
LAYER2
62
2
10
8.500000000000
20
129.000004632448
11
8.500000000000
21
131.000004632448
0
LINE
8
LAYER2
62
2
10
82.989503167287
20
139.961012102151
11
80.677659219331
21
140.912525402269
0
LINE
8
LAYER2
62
2
10
78.365815271376
20
141.864038702387
11
76.053971323420
21
142.815552002505
0
LINE
8
LAYER2
62
2
10
73.742127375465
20
143.767065302624
11
71.430283427510
21
144.718578602742
0
LINE
8
LAYER2
62
2
10
69.118439479554
20
145.670091902860
11
66.806595531599
21
146.621605202978
0
LINE
8
LAYER2
62
2
10
64.494751583643
20
147.573118503097
11
62.182907635688
21
148.524631803215
0
LINE
8
LAYER2
62
2
10
59.871063687732
20
149.476145103333
11
57.559219739777
21
150.427658403451
0
LINE
8
LAYER2
62
2
10
55.247375791822
20
151.379171703570
11
52.935531843866
21
152.330685003688
0
LINE
8
LAYER2
62
2
10
50.623687895911
20
153.282198303806
11
48.311843947955
21
154.233711603924
0
LINE
8
LAYER2
62
2
10
46.000000000000
20
155.185224904043
11
43.688156052045
21
156.136738204161
0
LINE
8
LAYER2
62
2
10
41.376312104089
20
157.088251504279
11
39.064468156134
21
158.039764804397
0
LINE
8
LAYER2
62
2
10
36.752624208178
20
158.991278104516
11
34.440780260223
21
159.942791404634
0
LINE
8
LAYER2
62
2
10
32.128936312267
20
160.894304704752
11
29.817092364312
21
161.845818004870
0
LINE
8
LAYER2
62
2
10
27.505248416357
20
162.797331304989
11
25.193404468401
21
163.748844605107
0
LINE
8
LAYER2
62
2
10
22.881560520446
20
164.700357905225
11
20.569716572490
21
165.651871205343
0
LINE
8
LAYER2
62
2
10
18.257872624535
20
166.603384505462
11
15.946028676580
21
167.554897805580
0
LINE
8
LAYER2
62
2
10
13.634184728624
20
168.506411105698
11
11.322340780669
21
169.457924405816
0
LINE
8
LAYER2
62
2
10
9.771707472808
20
172.258912864299
11
12.083551420763
21
171.307399564180
0
LINE
8
LAYER2
62
2
10
14.395395368719
20
170.355886264062
11
16.707239316674
21
169.404372963944
0
LINE
8
LAYER2
62
2
10
19.019083264630
20
168.452859663826
11
21.330927212585
21
167.501346363707
0
LINE
8
LAYER2
62
2
10
23.642771160540
20
166.549833063589
11
25.954615108496
21
165.598319763471
0
LINE
8
LAYER2
62
2
10
28.266459056451
20
164.646806463353
11
30.578303004407
21
163.695293163234
0
LINE
8
LAYER2
62
2
10
32.890146952362
20
162.743779863116
11
35.201990900317
21
161.792266562998
0
LINE
8
LAYER2
62
2
10
37.513834848273
20
160.840753262880
11
39.825678796228
21
159.889239962761
0
LINE
8
LAYER2
62
2
10
42.137522744184
20
158.937726662643
11
44.449366692139
21
157.986213362525
0
LINE
8
LAYER2
62
2
10
46.761210640095
20
157.034700062407
11
49.073054588050
21
156.083186762288
0
LINE
8
LAYER2
62
2
10
51.384898536005
20
155.131673462170
11
53.696742483961
21
154.180160162052
0
LINE
8
LAYER2
62
2
10
56.008586431916
20
153.228646861934
11
58.320430379872
21
152.277133561815
0
LINE
8
LAYER2
62
2
10
60.632274327827
20
151.325620261697
11
62.944118275782
21
150.374106961579
0
LINE
8
LAYER2
62
2
10
65.255962223738
20
149.422593661461
11
67.567806171693
21
148.471080361342
0
LINE
8
LAYER2
62
2
10
69.879650119649
20
147.519567061224
11
72.191494067604
21
146.568053761106
0
LINE
8
LAYER2
62
2
10
74.503338015560
20
145.616540460988
11
76.815181963515
21
144.665027160869
0
LINE
8
LAYER2
62
2
10
79.127025911470
20
143.713513860751
11
81.438869859426
21
142.762000560633
0
LINE
8
LAYER2
62
2
10
83.750713807381
20
141.810487260515
11
82.989503167287
21
139.961012102151
0
LINE
8
LAYER2
62
2
10
9.010496832713
20
170.409437705934
11
9.771707472808
21
172.258912864299
0
LINE
8
LAYER2
62
2
10
83.531788843406
20
148.389243624339
11
81.811775316188
21
150.203507515339
0
LINE
8
LAYER2
62
2
10
80.091761788970
20
152.017771406339
11
78.371748261751
21
153.832035297339
0
LINE
8
LAYER2
62
2
10
76.651734734533
20
155.646299188338
11
74.931721207315
21
157.460563079338
0
LINE
8
LAYER2
62
2
10
73.211707680096
20
159.274826970338
11
71.491694152878
21
161.089090861338
0
LINE
8
LAYER2
62
2
10
69.771680625660
20
162.903354752338
11
68.051667098441
21
164.717618643338
0
LINE
8
LAYER2
62
2
10
66.331653571223
20
166.531882534337
11
64.611640044004
21
168.346146425337
0
LINE
8
LAYER2
62
2
10
62.891626516786
20
170.160410316337
11
61.171612989568
21
171.974674207337
0
LINE
8
LAYER2
62
2
10
59.451599462349
20
173.788938098337
11
57.731585935131
21
175.603201989337
0
LINE
8
LAYER2
62
2
10
56.011572407913
20
177.417465880336
11
54.291558880694
21
179.231729771336
0
LINE
8
LAYER2
62
2
10
52.571545353476
20
181.045993662336
11
50.851531826258
21
182.860257553336
0
LINE
8
LAYER2
62
2
10
49.131518299039
20
184.674521444336
11
47.411504771821
21
186.488785335335
0
LINE
8
LAYER2
62
2
10
45.691491244602
20
188.303049226335
11
43.971477717384
21
190.117313117335
0
LINE
8
LAYER2
62
2
10
42.251464190166
20
191.931577008335
11
40.531450662947
21
193.745840899335
0
LINE
8
LAYER2
62
2
10
38.811437135729
20
195.560104790335
11
37.091423608511
21
197.374368681334
0
LINE
8
LAYER2
62
2
10
35.371410081292
20
199.188632572334
11
33.651396554074
21
201.002896463334
0
LINE
8
LAYER2
62
2
10
31.931383026856
20
202.817160354334
11
30.211369499637
21
204.631424245334
0
LINE
8
LAYER2
62
2
10
28.491355972419
20
206.445688136334
11
26.771342445200
21
208.259952027333
0
LINE
8
LAYER2
62
2
10
25.051328917982
20
210.074215918333
11
23.331315390764
21
211.888479809333
0
LINE
8
LAYER2
62
2
10
21.611301863545
20
213.702743700333
11
19.891288336327
21
215.517007591333
0
LINE
8
LAYER2
62
2
10
18.171274809109
20
217.331271482333
11
16.451261281890
21
219.145535373332
0
LINE
8
LAYER2
62
2
10
14.731247754672
20
220.959799264332
11
13.011234227454
21
222.774063155332
0
LINE
8
LAYER2
62
2
10
12.742631813035
20
225.964337868107
11
14.462645340253
21
224.150073977107
0
LINE
8
LAYER2
62
2
10
16.182658867472
20
222.335810086107
11
17.902672394690
21
220.521546195107
0
LINE
8
LAYER2
62
2
10
19.622685921908
20
218.707282304107
11
21.342699449127
21
216.893018413108
0
LINE
8
LAYER2
62
2
10
23.062712976345
20
215.078754522108
11
24.782726503564
21
213.264490631108
0
LINE
8
LAYER2
62
2
10
26.502740030782
20
211.450226740108
11
28.222753558000
21
209.635962849108
0
LINE
8
LAYER2
62
2
10
29.942767085219
20
207.821698958108
11
31.662780612437
21
206.007435067109
0
LINE
8
LAYER2
62
2
10
33.382794139655
20
204.193171176109
11
35.102807666874
21
202.378907285109
0
LINE
8
LAYER2
62
2
10
36.822821194092
20
200.564643394109
11
38.542834721310
21
198.750379503109
0
LINE
8
LAYER2
62
2
10
40.262848248529
20
196.936115612110
11
41.982861775747
21
195.121851721110
0
LINE
8
LAYER2
62
2
10
43.702875302966
20
193.307587830110
11
45.422888830184
21
191.493323939110
0
LINE
8
LAYER2
62
2
10
47.142902357402
20
189.679060048110
11
48.862915884621
21
187.864796157110
0
LINE
8
LAYER2
62
2
10
50.582929411839
20
186.050532266111
11
52.302942939057
21
184.236268375111
0
LINE
8
LAYER2
62
2
10
54.022956466276
20
182.422004484111
11
55.742969993494
21
180.607740593111
0
LINE
8
LAYER2
62
2
10
57.462983520712
20
178.793476702111
11
59.182997047931
21
176.979212811111
0
LINE
8
LAYER2
62
2
10
60.903010575149
20
175.164948920112
11
62.623024102368
21
173.350685029112
0
LINE
8
LAYER2
62
2
10
64.343037629586
20
171.536421138112
11
66.063051156804
21
169.722157247112
0
LINE
8
LAYER2
62
2
10
67.783064684023
20
167.907893356112
11
69.503078211241
21
166.093629465113
0
LINE
8
LAYER2
62
2
10
71.223091738459
20
164.279365574113
11
72.943105265678
21
162.465101683113
0
LINE
8
LAYER2
62
2
10
74.663118792896
20
160.650837792113
11
76.383132320114
21
158.836573901113
0
LINE
8
LAYER2
62
2
10
78.103145847333
20
157.022310010113
11
79.823159374551
21
155.208046119114
0
LINE
8
LAYER2
62
2
10
81.543172901769
20
153.393782228114
11
83.263186428988
21
151.579518337114
0
LINE
8
LAYER2
62
2
10
84.983199956206
20
149.765254446114
11
83.531788843406
21
148.389243624339
0
LINE
8
LAYER2
62
2
10
11.291220700235
20
224.588327046332
11
12.742631813035
21
225.964337868107
0
LINE
8
LAYER2
62
2
10
91.085545325076
20
148.732755646971
11
90.357700664383
21
151.124458419035
0
LINE
8
LAYER2
62
2
10
89.629856003689
20
153.516161191099
11
88.902011342996
21
155.907863963164
0
LINE
8
LAYER2
62
2
10
88.174166682303
20
158.299566735228
11
87.446322021610
21
160.691269507292
0
LINE
8
LAYER2
62
2
10
86.718477360916
20
163.082972279357
11
85.990632700223
21
165.474675051421
0
LINE
8
LAYER2
62
2
10
85.262788039530
20
167.866377823485
11
84.534943378836
21
170.258080595550
0
LINE
8
LAYER2
62
2
10
83.807098718143
20
172.649783367614
11
83.079254057450
21
175.041486139678
0
LINE
8
LAYER2
62
2
10
82.351409396756
20
177.433188911742
11
81.623564736063
21
179.824891683807
0
LINE
8
LAYER2
62
2
10
80.895720075370
20
182.216594455871
11
80.167875414676
21
184.608297227935
0
LINE
8
LAYER2
62
2
10
79.440030753983
20
187.000000000000
11
78.712186093290
21
189.391702772064
0
LINE
8
LAYER2
62
2
10
77.984341432596
20
191.783405544128
11
77.256496771903
21
194.175108316193
0
LINE
8
LAYER2
62
2
10
76.528652111210
20
196.566811088257
11
75.800807450516
21
198.958513860321
0
LINE
8
LAYER2
62
2
10
75.072962789823
20
201.350216632386
11
74.345118129130
21
203.741919404450
0
LINE
8
LAYER2
62
2
10
73.617273468436
20
206.133622176514
11
72.889428807743
21
208.525324948579
0
LINE
8
LAYER2
62
2
10
72.161584147050
20
210.917027720643
11
71.433739486356
21
213.308730492707
0
LINE
8
LAYER2
62
2
10
70.705894825663
20
215.700433264772
11
69.978050164970
21
218.092136036836
0
LINE
8
LAYER2
62
2
10
69.250205504276
20
220.483838808900
11
68.522360843583
21
222.875541580965
0
LINE
8
LAYER2
62
2
10
69.707878400541
20
225.849520081584
11
70.435723061234
21
223.457817309520
0
LINE
8
LAYER2
62
2
10
71.163567721928
20
221.066114537455
11
71.891412382621
21
218.674411765391
0
LINE
8
LAYER2
62
2
10
72.619257043314
20
216.282708993327
11
73.347101704008
21
213.891006221262
0
LINE
8
LAYER2
62
2
10
74.074946364701
20
211.499303449198
11
74.802791025394
21
209.107600677134
0
LINE
8
LAYER2
62
2
10
75.530635686088
20
206.715897905069
11
76.258480346781
21
204.324195133005
0
LINE
8
LAYER2
62
2
10
76.986325007474
20
201.932492360941
11
77.714169668168
21
199.540789588876
0
LINE
8
LAYER2
62
2
10
78.442014328861
20
197.149086816812
11
79.169858989554
21
194.757384044748
0
LINE
8
LAYER2
62
2
10
79.897703650248
20
192.365681272684
11
80.625548310941
21
189.973978500619
0
LINE
8
LAYER2
62
2
10
81.353392971634
20
187.582275728555
11
82.081237632328
21
185.190572956491
0
LINE
8
LAYER2
62
2
10
82.809082293021
20
182.798870184426
11
83.536926953714
21
180.407167412362
0
LINE
8
LAYER2
62
2
10
84.264771614408
20
178.015464640298
11
84.992616275101
21
175.623761868233
0
LINE
8
LAYER2
62
2
10
85.720460935794
20
173.232059096169
11
86.448305596488
21
170.840356324105
0
LINE
8
LAYER2
62
2
10
87.176150257181
20
168.448653552040
11
87.903994917874
21
166.056950779976
0
LINE
8
LAYER2
62
2
10
88.631839578567
20
163.665248007912
11
89.359684239261
21
161.273545235847
0
LINE
8
LAYER2
62
2
10
90.087528899954
20
158.881842463783
11
90.815373560647
21
156.490139691719
0
LINE
8
LAYER2
62
2
10
91.543218221341
20
154.098436919654
11
92.271062882034
21
151.706734147590
0
LINE
8
LAYER2
62
2
10
92.998907542728
20
149.315031375525
11
91.085545325076
21
148.732755646971
0
LINE
8
LAYER2
62
2
10
67.794516182890
20
225.267244353029
11
69.707878400541
21
225.849520081584
0
LINE
8
LAYER2
62
2
10
105.000000000000
20
149.500000000000
11
105.000000000000
21
152.000000000000
0
LINE
8
LAYER2
62
2
10
105.000000000000
20
154.500000000000
11
105.000000000000
21
157.000000000000
0
LINE
8
LAYER2
62
2
10
105.000000000000
20
159.500000000000
11
105.000000000000
21
162.000000000000
0
LINE
8
LAYER2
62
2
10
105.000000000000
20
164.500000000000
11
105.000000000000
21
167.000000000000
0
LINE
8
LAYER2
62
2
10
105.000000000000
20
169.500000000000
11
105.000000000000
21
172.000000000000
0
LINE
8
LAYER2
62
2
10
105.000000000000
20
174.500000000000
11
105.000000000000
21
177.000000000000
0
LINE
8
LAYER2
62
2
10
105.000000000000
20
179.500000000000
11
105.000000000000
21
182.000000000000
0
LINE
8
LAYER2
62
2
10
105.000000000000
20
184.500000000000
11
105.000000000000
21
187.000000000000
0
LINE
8
LAYER2
62
2
10
105.000000000000
20
189.500000000000
11
105.000000000000
21
192.000000000000
0
LINE
8
LAYER2
62
2
10
105.000000000000
20
194.500000000000
11
105.000000000000
21
197.000000000000
0
LINE
8
LAYER2
62
2
10
105.000000000000
20
199.500000000000
11
105.000000000000
21
202.000000000000
0
LINE
8
LAYER2
62
2
10
105.000000000000
20
204.500000000000
11
105.000000000000
21
207.000000000000
0
LINE
8
LAYER2
62
2
10
105.000000000000
20
209.500000000000
11
105.000000000000
21
212.000000000000
0
LINE
8
LAYER2
62
2
10
105.000000000000
20
214.500000000000
11
105.000000000000
21
217.000000000000
0
LINE
8
LAYER2
62
2
10
105.000000000000
20
219.500000000000
11
105.000000000000
21
222.000000000000
0
LINE
8
LAYER2
62
2
10
107.000000000000
20
224.500000000000
11
107.000000000000
21
222.000000000000
0
LINE
8
LAYER2
62
2
10
107.000000000000
20
219.500000000000
11
107.000000000000
21
217.000000000000
0
LINE
8
LAYER2
62
2
10
107.000000000000
20
214.500000000000
11
107.000000000000
21
212.000000000000
0
LINE
8
LAYER2
62
2
10
107.000000000000
20
209.500000000000
11
107.000000000000
21
207.000000000000
0
LINE
8
LAYER2
62
2
10
107.000000000000
20
204.500000000000
11
107.000000000000
21
202.000000000000
0
LINE
8
LAYER2
62
2
10
107.000000000000
20
199.500000000000
11
107.000000000000
21
197.000000000000
0
LINE
8
LAYER2
62
2
10
107.000000000000
20
194.500000000000
11
107.000000000000
21
192.000000000000
0
LINE
8
LAYER2
62
2
10
107.000000000000
20
189.500000000000
11
107.000000000000
21
187.000000000000
0
LINE
8
LAYER2
62
2
10
107.000000000000
20
184.500000000000
11
107.000000000000
21
182.000000000000
0
LINE
8
LAYER2
62
2
10
107.000000000000
20
179.500000000000
11
107.000000000000
21
177.000000000000
0
LINE
8
LAYER2
62
2
10
107.000000000000
20
174.500000000000
11
107.000000000000
21
172.000000000000
0
LINE
8
LAYER2
62
2
10
107.000000000000
20
169.500000000000
11
107.000000000000
21
167.000000000000
0
LINE
8
LAYER2
62
2
10
107.000000000000
20
164.500000000000
11
107.000000000000
21
162.000000000000
0
LINE
8
LAYER2
62
2
10
107.000000000000
20
159.500000000000
11
107.000000000000
21
157.000000000000
0
LINE
8
LAYER2
62
2
10
107.000000000000
20
154.500000000000
11
107.000000000000
21
152.000000000000
0
LINE
8
LAYER2
62
2
10
107.000000000000
20
149.500000000000
11
105.000000000000
21
149.500000000000
0
LINE
8
LAYER2
62
2
10
105.000000000000
20
224.500000000000
11
107.000000000000
21
224.500000000000
0
LINE
8
LAYER2
62
2
10
130.000000000000
20
149.500000000000
11
130.000000000000
21
152.000000000000
0
LINE
8
LAYER2
62
2
10
130.000000000000
20
154.500000000000
11
130.000000000000
21
157.000000000000
0
LINE
8
LAYER2
62
2
10
130.000000000000
20
159.500000000000
11
130.000000000000
21
162.000000000000
0
LINE
8
LAYER2
62
2
10
130.000000000000
20
164.500000000000
11
130.000000000000
21
167.000000000000
0
LINE
8
LAYER2
62
2
10
130.000000000000
20
169.500000000000
11
130.000000000000
21
172.000000000000
0
LINE
8
LAYER2
62
2
10
130.000000000000
20
174.500000000000
11
130.000000000000
21
177.000000000000
0
LINE
8
LAYER2
62
2
10
130.000000000000
20
179.500000000000
11
130.000000000000
21
182.000000000000
0
LINE
8
LAYER2
62
2
10
130.000000000000
20
184.500000000000
11
130.000000000000
21
187.000000000000
0
LINE
8
LAYER2
62
2
10
130.000000000000
20
189.500000000000
11
130.000000000000
21
192.000000000000
0
LINE
8
LAYER2
62
2
10
130.000000000000
20
194.500000000000
11
130.000000000000
21
197.000000000000
0
LINE
8
LAYER2
62
2
10
130.000000000000
20
199.500000000000
11
130.000000000000
21
202.000000000000
0
LINE
8
LAYER2
62
2
10
130.000000000000
20
204.500000000000
11
130.000000000000
21
207.000000000000
0
LINE
8
LAYER2
62
2
10
130.000000000000
20
209.500000000000
11
130.000000000000
21
212.000000000000
0
LINE
8
LAYER2
62
2
10
130.000000000000
20
214.500000000000
11
130.000000000000
21
217.000000000000
0
LINE
8
LAYER2
62
2
10
130.000000000000
20
219.500000000000
11
130.000000000000
21
222.000000000000
0
LINE
8
LAYER2
62
2
10
132.000000000000
20
224.500000000000
11
132.000000000000
21
222.000000000000
0
LINE
8
LAYER2
62
2
10
132.000000000000
20
219.500000000000
11
132.000000000000
21
217.000000000000
0
LINE
8
LAYER2
62
2
10
132.000000000000
20
214.500000000000
11
132.000000000000
21
212.000000000000
0
LINE
8
LAYER2
62
2
10
132.000000000000
20
209.500000000000
11
132.000000000000
21
207.000000000000
0
LINE
8
LAYER2
62
2
10
132.000000000000
20
204.500000000000
11
132.000000000000
21
202.000000000000
0
LINE
8
LAYER2
62
2
10
132.000000000000
20
199.500000000000
11
132.000000000000
21
197.000000000000
0
LINE
8
LAYER2
62
2
10
132.000000000000
20
194.500000000000
11
132.000000000000
21
192.000000000000
0
LINE
8
LAYER2
62
2
10
132.000000000000
20
189.500000000000
11
132.000000000000
21
187.000000000000
0
LINE
8
LAYER2
62
2
10
132.000000000000
20
184.500000000000
11
132.000000000000
21
182.000000000000
0
LINE
8
LAYER2
62
2
10
132.000000000000
20
179.500000000000
11
132.000000000000
21
177.000000000000
0
LINE
8
LAYER2
62
2
10
132.000000000000
20
174.500000000000
11
132.000000000000
21
172.000000000000
0
LINE
8
LAYER2
62
2
10
132.000000000000
20
169.500000000000
11
132.000000000000
21
167.000000000000
0
LINE
8
LAYER2
62
2
10
132.000000000000
20
164.500000000000
11
132.000000000000
21
162.000000000000
0
LINE
8
LAYER2
62
2
10
132.000000000000
20
159.500000000000
11
132.000000000000
21
157.000000000000
0
LINE
8
LAYER2
62
2
10
132.000000000000
20
154.500000000000
11
132.000000000000
21
152.000000000000
0
LINE
8
LAYER2
62
2
10
132.000000000000
20
149.500000000000
11
130.000000000000
21
149.500000000000
0
LINE
8
LAYER2
62
2
10
130.000000000000
20
224.500000000000
11
132.000000000000
21
224.500000000000
0
LINE
8
LAYER2
62
2
10
155.000000000000
20
149.500000000000
11
155.000000000000
21
152.000000000000
0
LINE
8
LAYER2
62
2
10
155.000000000000
20
154.500000000000
11
155.000000000000
21
157.000000000000
0
LINE
8
LAYER2
62
2
10
155.000000000000
20
159.500000000000
11
155.000000000000
21
162.000000000000
0
LINE
8
LAYER2
62
2
10
155.000000000000
20
164.500000000000
11
155.000000000000
21
167.000000000000
0
LINE
8
LAYER2
62
2
10
155.000000000000
20
169.500000000000
11
155.000000000000
21
172.000000000000
0
LINE
8
LAYER2
62
2
10
155.000000000000
20
174.500000000000
11
155.000000000000
21
177.000000000000
0
LINE
8
LAYER2
62
2
10
155.000000000000
20
179.500000000000
11
155.000000000000
21
182.000000000000
0
LINE
8
LAYER2
62
2
10
155.000000000000
20
184.500000000000
11
155.000000000000
21
187.000000000000
0
LINE
8
LAYER2
62
2
10
155.000000000000
20
189.500000000000
11
155.000000000000
21
192.000000000000
0
LINE
8
LAYER2
62
2
10
155.000000000000
20
194.500000000000
11
155.000000000000
21
197.000000000000
0
LINE
8
LAYER2
62
2
10
155.000000000000
20
199.500000000000
11
155.000000000000
21
202.000000000000
0
LINE
8
LAYER2
62
2
10
155.000000000000
20
204.500000000000
11
155.000000000000
21
207.000000000000
0
LINE
8
LAYER2
62
2
10
155.000000000000
20
209.500000000000
11
155.000000000000
21
212.000000000000
0
LINE
8
LAYER2
62
2
10
155.000000000000
20
214.500000000000
11
155.000000000000
21
217.000000000000
0
LINE
8
LAYER2
62
2
10
155.000000000000
20
219.500000000000
11
155.000000000000
21
222.000000000000
0
LINE
8
LAYER2
62
2
10
157.000000000000
20
224.500000000000
11
157.000000000000
21
222.000000000000
0
LINE
8
LAYER2
62
2
10
157.000000000000
20
219.500000000000
11
157.000000000000
21
217.000000000000
0
LINE
8
LAYER2
62
2
10
157.000000000000
20
214.500000000000
11
157.000000000000
21
212.000000000000
0
LINE
8
LAYER2
62
2
10
157.000000000000
20
209.500000000000
11
157.000000000000
21
207.000000000000
0
LINE
8
LAYER2
62
2
10
157.000000000000
20
204.500000000000
11
157.000000000000
21
202.000000000000
0
LINE
8
LAYER2
62
2
10
157.000000000000
20
199.500000000000
11
157.000000000000
21
197.000000000000
0
LINE
8
LAYER2
62
2
10
157.000000000000
20
194.500000000000
11
157.000000000000
21
192.000000000000
0
LINE
8
LAYER2
62
2
10
157.000000000000
20
189.500000000000
11
157.000000000000
21
187.000000000000
0
LINE
8
LAYER2
62
2
10
157.000000000000
20
184.500000000000
11
157.000000000000
21
182.000000000000
0
LINE
8
LAYER2
62
2
10
157.000000000000
20
179.500000000000
11
157.000000000000
21
177.000000000000
0
LINE
8
LAYER2
62
2
10
157.000000000000
20
174.500000000000
11
157.000000000000
21
172.000000000000
0
LINE
8
LAYER2
62
2
10
157.000000000000
20
169.500000000000
11
157.000000000000
21
167.000000000000
0
LINE
8
LAYER2
62
2
10
157.000000000000
20
164.500000000000
11
157.000000000000
21
162.000000000000
0
LINE
8
LAYER2
62
2
10
157.000000000000
20
159.500000000000
11
157.000000000000
21
157.000000000000
0
LINE
8
LAYER2
62
2
10
157.000000000000
20
154.500000000000
11
157.000000000000
21
152.000000000000
0
LINE
8
LAYER2
62
2
10
157.000000000000
20
149.500000000000
11
155.000000000000
21
149.500000000000
0
LINE
8
LAYER2
62
2
10
155.000000000000
20
224.500000000000
11
157.000000000000
21
224.500000000000
0
LINE
8
LAYER2
62
2
10
180.000000000000
20
149.500000000000
11
180.000000000000
21
152.000000000000
0
LINE
8
LAYER2
62
2
10
180.000000000000
20
154.500000000000
11
180.000000000000
21
157.000000000000
0
LINE
8
LAYER2
62
2
10
180.000000000000
20
159.500000000000
11
180.000000000000
21
162.000000000000
0
LINE
8
LAYER2
62
2
10
180.000000000000
20
164.500000000000
11
180.000000000000
21
167.000000000000
0
LINE
8
LAYER2
62
2
10
180.000000000000
20
169.500000000000
11
180.000000000000
21
172.000000000000
0
LINE
8
LAYER2
62
2
10
180.000000000000
20
174.500000000000
11
180.000000000000
21
177.000000000000
0
LINE
8
LAYER2
62
2
10
180.000000000000
20
179.500000000000
11
180.000000000000
21
182.000000000000
0
LINE
8
LAYER2
62
2
10
180.000000000000
20
184.500000000000
11
180.000000000000
21
187.000000000000
0
LINE
8
LAYER2
62
2
10
180.000000000000
20
189.500000000000
11
180.000000000000
21
192.000000000000
0
LINE
8
LAYER2
62
2
10
180.000000000000
20
194.500000000000
11
180.000000000000
21
197.000000000000
0
LINE
8
LAYER2
62
2
10
180.000000000000
20
199.500000000000
11
180.000000000000
21
202.000000000000
0
LINE
8
LAYER2
62
2
10
180.000000000000
20
204.500000000000
11
180.000000000000
21
207.000000000000
0
LINE
8
LAYER2
62
2
10
180.000000000000
20
209.500000000000
11
180.000000000000
21
212.000000000000
0
LINE
8
LAYER2
62
2
10
180.000000000000
20
214.500000000000
11
180.000000000000
21
217.000000000000
0
LINE
8
LAYER2
62
2
10
180.000000000000
20
219.500000000000
11
180.000000000000
21
222.000000000000
0
LINE
8
LAYER2
62
2
10
182.000000000000
20
224.500000000000
11
182.000000000000
21
222.000000000000
0
LINE
8
LAYER2
62
2
10
182.000000000000
20
219.500000000000
11
182.000000000000
21
217.000000000000
0
LINE
8
LAYER2
62
2
10
182.000000000000
20
214.500000000000
11
182.000000000000
21
212.000000000000
0
LINE
8
LAYER2
62
2
10
182.000000000000
20
209.500000000000
11
182.000000000000
21
207.000000000000
0
LINE
8
LAYER2
62
2
10
182.000000000000
20
204.500000000000
11
182.000000000000
21
202.000000000000
0
LINE
8
LAYER2
62
2
10
182.000000000000
20
199.500000000000
11
182.000000000000
21
197.000000000000
0
LINE
8
LAYER2
62
2
10
182.000000000000
20
194.500000000000
11
182.000000000000
21
192.000000000000
0
LINE
8
LAYER2
62
2
10
182.000000000000
20
189.500000000000
11
182.000000000000
21
187.000000000000
0
LINE
8
LAYER2
62
2
10
182.000000000000
20
184.500000000000
11
182.000000000000
21
182.000000000000
0
LINE
8
LAYER2
62
2
10
182.000000000000
20
179.500000000000
11
182.000000000000
21
177.000000000000
0
LINE
8
LAYER2
62
2
10
182.000000000000
20
174.500000000000
11
182.000000000000
21
172.000000000000
0
LINE
8
LAYER2
62
2
10
182.000000000000
20
169.500000000000
11
182.000000000000
21
167.000000000000
0
LINE
8
LAYER2
62
2
10
182.000000000000
20
164.500000000000
11
182.000000000000
21
162.000000000000
0
LINE
8
LAYER2
62
2
10
182.000000000000
20
159.500000000000
11
182.000000000000
21
157.000000000000
0
LINE
8
LAYER2
62
2
10
182.000000000000
20
154.500000000000
11
182.000000000000
21
152.000000000000
0
LINE
8
LAYER2
62
2
10
182.000000000000
20
149.500000000000
11
180.000000000000
21
149.500000000000
0
LINE
8
LAYER2
62
2
10
180.000000000000
20
224.500000000000
11
182.000000000000
21
224.500000000000
0
LINE
8
LAYER2
62
2
10
205.000000000000
20
149.500000000000
11
205.000000000000
21
152.000000000000
0
LINE
8
LAYER2
62
2
10
205.000000000000
20
154.500000000000
11
205.000000000000
21
157.000000000000
0
LINE
8
LAYER2
62
2
10
205.000000000000
20
159.500000000000
11
205.000000000000
21
162.000000000000
0
LINE
8
LAYER2
62
2
10
205.000000000000
20
164.500000000000
11
205.000000000000
21
167.000000000000
0
LINE
8
LAYER2
62
2
10
205.000000000000
20
169.500000000000
11
205.000000000000
21
172.000000000000
0
LINE
8
LAYER2
62
2
10
205.000000000000
20
174.500000000000
11
205.000000000000
21
177.000000000000
0
LINE
8
LAYER2
62
2
10
205.000000000000
20
179.500000000000
11
205.000000000000
21
182.000000000000
0
LINE
8
LAYER2
62
2
10
205.000000000000
20
184.500000000000
11
205.000000000000
21
187.000000000000
0
LINE
8
LAYER2
62
2
10
205.000000000000
20
189.500000000000
11
205.000000000000
21
192.000000000000
0
LINE
8
LAYER2
62
2
10
205.000000000000
20
194.500000000000
11
205.000000000000
21
197.000000000000
0
LINE
8
LAYER2
62
2
10
205.000000000000
20
199.500000000000
11
205.000000000000
21
202.000000000000
0
LINE
8
LAYER2
62
2
10
205.000000000000
20
204.500000000000
11
205.000000000000
21
207.000000000000
0
LINE
8
LAYER2
62
2
10
205.000000000000
20
209.500000000000
11
205.000000000000
21
212.000000000000
0
LINE
8
LAYER2
62
2
10
205.000000000000
20
214.500000000000
11
205.000000000000
21
217.000000000000
0
LINE
8
LAYER2
62
2
10
205.000000000000
20
219.500000000000
11
205.000000000000
21
222.000000000000
0
LINE
8
LAYER2
62
2
10
207.000000000000
20
224.500000000000
11
207.000000000000
21
222.000000000000
0
LINE
8
LAYER2
62
2
10
207.000000000000
20
219.500000000000
11
207.000000000000
21
217.000000000000
0
LINE
8
LAYER2
62
2
10
207.000000000000
20
214.500000000000
11
207.000000000000
21
212.000000000000
0
LINE
8
LAYER2
62
2
10
207.000000000000
20
209.500000000000
11
207.000000000000
21
207.000000000000
0
LINE
8
LAYER2
62
2
10
207.000000000000
20
204.500000000000
11
207.000000000000
21
202.000000000000
0
LINE
8
LAYER2
62
2
10
207.000000000000
20
199.500000000000
11
207.000000000000
21
197.000000000000
0
LINE
8
LAYER2
62
2
10
207.000000000000
20
194.500000000000
11
207.000000000000
21
192.000000000000
0
LINE
8
LAYER2
62
2
10
207.000000000000
20
189.500000000000
11
207.000000000000
21
187.000000000000
0
LINE
8
LAYER2
62
2
10
207.000000000000
20
184.500000000000
11
207.000000000000
21
182.000000000000
0
LINE
8
LAYER2
62
2
10
207.000000000000
20
179.500000000000
11
207.000000000000
21
177.000000000000
0
LINE
8
LAYER2
62
2
10
207.000000000000
20
174.500000000000
11
207.000000000000
21
172.000000000000
0
LINE
8
LAYER2
62
2
10
207.000000000000
20
169.500000000000
11
207.000000000000
21
167.000000000000
0
LINE
8
LAYER2
62
2
10
207.000000000000
20
164.500000000000
11
207.000000000000
21
162.000000000000
0
LINE
8
LAYER2
62
2
10
207.000000000000
20
159.500000000000
11
207.000000000000
21
157.000000000000
0
LINE
8
LAYER2
62
2
10
207.000000000000
20
154.500000000000
11
207.000000000000
21
152.000000000000
0
LINE
8
LAYER2
62
2
10
207.000000000000
20
149.500000000000
11
205.000000000000
21
149.500000000000
0
LINE
8
LAYER2
62
2
10
205.000000000000
20
224.500000000000
11
207.000000000000
21
224.500000000000
0
LINE
8
LAYER2
62
2
10
230.000000000000
20
149.500000000000
11
230.000000000000
21
152.000000000000
0
LINE
8
LAYER2
62
2
10
230.000000000000
20
154.500000000000
11
230.000000000000
21
157.000000000000
0
LINE
8
LAYER2
62
2
10
230.000000000000
20
159.500000000000
11
230.000000000000
21
162.000000000000
0
LINE
8
LAYER2
62
2
10
230.000000000000
20
164.500000000000
11
230.000000000000
21
167.000000000000
0
LINE
8
LAYER2
62
2
10
230.000000000000
20
169.500000000000
11
230.000000000000
21
172.000000000000
0
LINE
8
LAYER2
62
2
10
230.000000000000
20
174.500000000000
11
230.000000000000
21
177.000000000000
0
LINE
8
LAYER2
62
2
10
230.000000000000
20
179.500000000000
11
230.000000000000
21
182.000000000000
0
LINE
8
LAYER2
62
2
10
230.000000000000
20
184.500000000000
11
230.000000000000
21
187.000000000000
0
LINE
8
LAYER2
62
2
10
230.000000000000
20
189.500000000000
11
230.000000000000
21
192.000000000000
0
LINE
8
LAYER2
62
2
10
230.000000000000
20
194.500000000000
11
230.000000000000
21
197.000000000000
0
LINE
8
LAYER2
62
2
10
230.000000000000
20
199.500000000000
11
230.000000000000
21
202.000000000000
0
LINE
8
LAYER2
62
2
10
230.000000000000
20
204.500000000000
11
230.000000000000
21
207.000000000000
0
LINE
8
LAYER2
62
2
10
230.000000000000
20
209.500000000000
11
230.000000000000
21
212.000000000000
0
LINE
8
LAYER2
62
2
10
230.000000000000
20
214.500000000000
11
230.000000000000
21
217.000000000000
0
LINE
8
LAYER2
62
2
10
230.000000000000
20
219.500000000000
11
230.000000000000
21
222.000000000000
0
LINE
8
LAYER2
62
2
10
232.000000000000
20
224.500000000000
11
232.000000000000
21
222.000000000000
0
LINE
8
LAYER2
62
2
10
232.000000000000
20
219.500000000000
11
232.000000000000
21
217.000000000000
0
LINE
8
LAYER2
62
2
10
232.000000000000
20
214.500000000000
11
232.000000000000
21
212.000000000000
0
LINE
8
LAYER2
62
2
10
232.000000000000
20
209.500000000000
11
232.000000000000
21
207.000000000000
0
LINE
8
LAYER2
62
2
10
232.000000000000
20
204.500000000000
11
232.000000000000
21
202.000000000000
0
LINE
8
LAYER2
62
2
10
232.000000000000
20
199.500000000000
11
232.000000000000
21
197.000000000000
0
LINE
8
LAYER2
62
2
10
232.000000000000
20
194.500000000000
11
232.000000000000
21
192.000000000000
0
LINE
8
LAYER2
62
2
10
232.000000000000
20
189.500000000000
11
232.000000000000
21
187.000000000000
0
LINE
8
LAYER2
62
2
10
232.000000000000
20
184.500000000000
11
232.000000000000
21
182.000000000000
0
LINE
8
LAYER2
62
2
10
232.000000000000
20
179.500000000000
11
232.000000000000
21
177.000000000000
0
LINE
8
LAYER2
62
2
10
232.000000000000
20
174.500000000000
11
232.000000000000
21
172.000000000000
0
LINE
8
LAYER2
62
2
10
232.000000000000
20
169.500000000000
11
232.000000000000
21
167.000000000000
0
LINE
8
LAYER2
62
2
10
232.000000000000
20
164.500000000000
11
232.000000000000
21
162.000000000000
0
LINE
8
LAYER2
62
2
10
232.000000000000
20
159.500000000000
11
232.000000000000
21
157.000000000000
0
LINE
8
LAYER2
62
2
10
232.000000000000
20
154.500000000000
11
232.000000000000
21
152.000000000000
0
LINE
8
LAYER2
62
2
10
232.000000000000
20
149.500000000000
11
230.000000000000
21
149.500000000000
0
LINE
8
LAYER2
62
2
10
230.000000000000
20
224.500000000000
11
232.000000000000
21
224.500000000000
0
LINE
8
LAYER3
62
3
10
0.500000000000
20
228.500000000000
11
0.500000000000
21
232.500000000000
0
LINE
8
LAYER3
62
3
10
0.500000000000
20
232.500000000000
11
255.000000000000
21
232.500000000000
0
LINE
8
LAYER3
62
3
10
255.000000000000
20
232.500000000000
11
255.000000000000
21
228.500000000000
0
LINE
8
LAYER3
62
3
10
255.000000000000
20
228.500000000000
11
0.500000000000
21
228.500000000000
0
LINE
8
LAYER3
62
3
10
4.500000000000
20
0.000000000000
11
0.500000000000
21
0.000000000000
0
LINE
8
LAYER3
62
3
10
0.500000000000
20
0.000000000000
11
0.500000000000
21
232.500000000000
0
LINE
8
LAYER3
62
3
10
0.500000000000
20
232.500000000000
11
4.500000000000
21
232.500000000000
0
LINE
8
LAYER3
62
3
10
4.500000000000
20
232.500000000000
11
4.500000000000
21
0.000000000000
0
LINE
8
LAYER3
62
3
10
93.500000000000
20
141.500000000000
11
93.500000000000
21
145.500000000000
0
LINE
8
LAYER3
62
3
10
93.500000000000
20
145.500000000000
11
247.000000000000
21
145.500000000000
0
LINE
8
LAYER3
62
3
10
247.000000000000
20
145.500000000000
11
247.000000000000
21
141.500000000000
0
LINE
8
LAYER3
62
3
10
247.000000000000
20
141.500000000000
11
93.500000000000
21
141.500000000000
0
LINE
8
LAYER3
62
3
10
91.500000000000
20
8.000000000000
11
87.500000000000
21
8.000000000000
0
LINE
8
LAYER3
62
3
10
87.500000000000
20
8.000000000000
11
87.500000000000
21
139.500000000000
0
LINE
8
LAYER3
62
3
10
87.500000000000
20
139.500000000000
11
91.500000000000
21
139.500000000000
0
LINE
8
LAYER3
62
3
10
91.500000000000
20
139.500000000000
11
91.500000000000
21
8.000000000000
0
LINE
8
LAYER4
62
4
10
247.000000000000
20
139.500000000000
11
247.000000000000
21
147.500000000000
0
LINE
8
LAYER4
62
4
10
247.000000000000
20
147.500000000000
11
255.000000000000
21
147.500000000000
0
LINE
8
LAYER4
62
4
10
255.000000000000
20
147.500000000000
11
255.000000000000
21
139.500000000000
0
LINE
8
LAYER4
62
4
10
255.000000000000
20
139.500000000000
11
247.000000000000
21
139.500000000000
0
LINE
8
LAYER4
62
4
10
93.500000000000
20
139.500000000000
11
85.500000000000
21
139.500000000000
0
LINE
8
LAYER4
62
4
10
85.500000000000
20
139.500000000000
11
85.500000000000
21
147.500000000000
0
LINE
8
LAYER4
62
4
10
85.500000000000
20
147.500000000000
11
93.500000000000
21
147.500000000000
0
LINE
8
LAYER4
62
4
10
93.500000000000
20
147.500000000000
11
93.500000000000
21
139.500000000000
0
LINE
8
LAYER4
62
4
10
93.500000000000
20
0.000000000000
11
85.500000000000
21
0.000000000000
0
LINE
8
LAYER4
62
4
10
85.500000000000
20
0.000000000000
11
85.500000000000
21
8.000000000000
0
LINE
8
LAYER4
62
4
10
85.500000000000
20
8.000000000000
11
93.500000000000
21
8.000000000000
0
LINE
8
LAYER4
62
4
10
93.500000000000
20
8.000000000000
11
93.500000000000
21
0.000000000000
0
LINE
8
LAYER5
62
5
10
3.500000000000
20
225.000000000000
11
3.500000000000
21
229.000000000000
0
LINE
8
LAYER5
62
5
10
3.500000000000
20
229.000000000000
11
255.000000000000
21
229.000000000000
0
LINE
8
LAYER5
62
5
10
255.000000000000
20
229.000000000000
11
255.000000000000
21
225.000000000000
0
LINE
8
LAYER5
62
5
10
255.000000000000
20
225.000000000000
11
3.500000000000
21
225.000000000000
0
LINE
8
LAYER5
62
5
10
8.000000000000
20
0.000000000000
11
4.000000000000
21
0.000000000000
0
LINE
8
LAYER5
62
5
10
4.000000000000
20
0.000000000000
11
4.000000000000
21
225.000000000000
0
LINE
8
LAYER5
62
5
10
4.000000000000
20
225.000000000000
11
8.000000000000
21
225.000000000000
0
LINE
8
LAYER5
62
5
10
8.000000000000
20
225.000000000000
11
8.000000000000
21
0.000000000000
0
LINE
8
LAYER5
62
5
10
93.500000000000
20
141.500000000000
11
93.500000000000
21
145.500000000000
0
LINE
8
LAYER5
62
5
10
93.500000000000
20
145.500000000000
11
247.000000000000
21
145.500000000000
0
LINE
8
LAYER5
62
5
10
247.000000000000
20
145.500000000000
11
247.000000000000
21
141.500000000000
0
LINE
8
LAYER5
62
5
10
247.000000000000
20
141.500000000000
11
93.500000000000
21
141.500000000000
0
LINE
8
LAYER5
62
5
10
91.500000000000
20
8.000000000000
11
87.500000000000
21
8.000000000000
0
LINE
8
LAYER5
62
5
10
87.500000000000
20
8.000000000000
11
87.500000000000
21
139.500000000000
0
LINE
8
LAYER5
62
5
10
87.500000000000
20
139.500000000000
11
91.500000000000
21
139.500000000000
0
LINE
8
LAYER5
62
5
10
91.500000000000
20
139.500000000000
11
91.500000000000
21
8.000000000000
0
LINE
8
LAYER6
62
6
10
171.250000000000
20
142.985000000000
11
171.250000000000
21
144.015000000000
0
LINE
8
LAYER6
62
6
10
171.250000000000
20
144.015000000000
11
245.000000000000
21
144.015000000000
0
LINE
8
LAYER6
62
6
10
245.000000000000
20
144.015000000000
11
245.000000000000
21
142.985000000000
0
LINE
8
LAYER6
62
6
10
245.000000000000
20
142.985000000000
11
171.250000000000
21
142.985000000000
0
LINE
8
LAYER6
62
6
10
95.500000000000
20
142.985000000000
11
95.500000000000
21
144.015000000000
0
LINE
8
LAYER6
62
6
10
95.500000000000
20
144.015000000000
11
169.250000000000
21
144.015000000000
0
LINE
8
LAYER6
62
6
10
169.250000000000
20
144.015000000000
11
169.250000000000
21
142.985000000000
0
LINE
8
LAYER6
62
6
10
169.250000000000
20
142.985000000000
11
95.500000000000
21
142.985000000000
0
LINE
8
LAYER6
62
6
10
90.015000000000
20
74.750002316224
11
88.985000000000
21
74.750002316224
0
LINE
8
LAYER6
62
6
10
88.985000000000
20
74.750002316224
11
88.985000000000
21
137.500000000000
0
LINE
8
LAYER6
62
6
10
88.985000000000
20
137.500000000000
11
90.015000000000
21
137.500000000000
0
LINE
8
LAYER6
62
6
10
90.015000000000
20
137.500000000000
11
90.015000000000
21
74.750002316224
0
LINE
8
LAYER6
62
6
10
90.015000000000
20
10.000004632448
11
88.985000000000
21
10.000004632448
0
LINE
8
LAYER6
62
6
10
88.985000000000
20
10.000004632448
11
88.985000000000
21
72.750002316224
0
LINE
8
LAYER6
62
6
10
88.985000000000
20
72.750002316224
11
90.015000000000
21
72.750002316224
0
LINE
8
LAYER6
62
6
10
90.015000000000
20
72.750002316224
11
90.015000000000
21
10.000004632448
0
LINE
8
LAYER7
62
7
10
255.000000000000
20
233.000000000000
11
255.000000000000
21
43.000000000000
0
LINE
8
LAYER7
62
7
10
255.000000000000
20
43.000000000000
11
0.000000000000
21
43.000000000000
0
LINE
8
LAYER7
62
7
10
0.000000000000
20
43.000000000000
11
0.000000000000
21
233.000000000000
0
LINE
8
LAYER7
62
7
10
0.000000000000
20
233.000000000000
11
255.000000000000
21
233.000000000000
0
LINE
8
LAYER9
62
8
10
48.286437988281
20
1.000000000000
11
48.286437988281
21
159.713562011719
0
ARC
8
LAYER9
62
8
10
73.286437988281
20
159.713562011719
40
25.000000000000
50
90.000000000000
51
180.000000000000
0
LINE
8
LAYER9
62
8
10
73.286437988281
20
184.713562011719
11
255.000000000000
21
184.713562011719
0
LINE
8
LAYER14
62
8
10
33.511437988281
20
16.400004632448
11
33.848937988281
21
17.000004632448
0
LINE
8
LAYER14
62
8
10
33.848937988281
20
17.000004632448
11
33.848937988281
21
15.000004632448
0
LINE
8
LAYER14
62
8
10
33.623937988281
20
15.000004632448
11
34.073937988281
21
15.000004632448
0
LINE
8
LAYER14
62
8
10
33.286437988281
20
41.700004632448
11
33.455187988281
21
42.000004632448
0
LINE
8
LAYER14
62
8
10
33.455187988281
20
42.000004632448
11
34.242687988281
21
42.000004632448
0
LINE
8
LAYER14
62
8
10
34.242687988281
20
42.000004632448
11
34.411437988281
21
41.700004632448
0
LINE
8
LAYER14
62
8
10
34.411437988281
20
41.700004632448
11
34.411437988281
21
41.400004632448
0
LINE
8
LAYER14
62
8
10
34.411437988281
20
41.400004632448
11
33.286437988281
21
40.300004632448
0
LINE
8
LAYER14
62
8
10
33.286437988281
20
40.300004632448
11
33.286437988281
21
40.000004632448
0
LINE
8
LAYER14
62
8
10
33.286437988281
20
40.000004632448
11
34.411437988281
21
40.000004632448
0
LINE
8
LAYER14
62
8
10
34.411437988281
20
40.000004632448
11
34.411437988281
21
40.300004632448
0
LINE
8
LAYER14
62
8
10
33.286437988281
20
66.800004632448
11
33.398937988281
21
67.000004632448
0
LINE
8
LAYER14
62
8
10
33.398937988281
20
67.000004632448
11
34.298937988281
21
67.000004632448
0
LINE
8
LAYER14
62
8
10
34.298937988281
20
67.000004632448
11
34.411437988281
21
66.800004632448
0
LINE
8
LAYER14
62
8
10
34.411437988281
20
66.800004632448
11
34.411437988281
21
66.400004632448
0
LINE
8
LAYER14
62
8
10
34.411437988281
20
66.400004632448
11
34.298937988281
21
66.200004632448
0
LINE
8
LAYER14
62
8
10
34.298937988281
20
66.200004632448
11
33.623937988281
21
66.200004632448
0
LINE
8
LAYER14
62
8
10
34.298937988281
20
66.200004632448
11
34.411437988281
21
66.000004632448
0
LINE
8
LAYER14
62
8
10
34.411437988281
20
66.000004632448
11
34.411437988281
21
65.200004632448
0
LINE
8
LAYER14
62
8
10
34.411437988281
20
65.200004632448
11
34.298937988281
21
65.000004632448
0
LINE
8
LAYER14
62
8
10
34.298937988281
20
65.000004632448
11
33.398937988281
21
65.000004632448
0
LINE
8
LAYER14
62
8
10
33.398937988281
20
65.000004632448
11
33.286437988281
21
65.200004632448
0
LINE
8
LAYER14
62
8
10
33.286437988281
20
92.000004632448
11
33.286437988281
21
91.200004632448
0
LINE
8
LAYER14
62
8
10
33.286437988281
20
91.200004632448
11
34.411437988281
21
91.200004632448
0
LINE
8
LAYER14
62
8
10
34.411437988281
20
92.000004632448
11
34.411437988281
21
90.000004632448
0
LINE
8
LAYER14
62
8
10
34.411437988281
20
117.000004632448
11
33.286437988281
21
117.000004632448
0
LINE
8
LAYER14
62
8
10
33.286437988281
20
117.000004632448
11
33.286437988281
21
116.200004632448
0
LINE
8
LAYER14
62
8
10
33.286437988281
20
116.200004632448
11
34.242687988281
21
116.200004632448
0
LINE
8
LAYER14
62
8
10
34.242687988281
20
116.200004632448
11
34.411437988281
21
115.900004632448
0
LINE
8
LAYER14
62
8
10
34.411437988281
20
115.900004632448
11
34.411437988281
21
115.300004632448
0
LINE
8
LAYER14
62
8
10
34.411437988281
20
115.300004632448
11
34.242687988281
21
115.000004632448
0
LINE
8
LAYER14
62
8
10
34.242687988281
20
115.000004632448
11
33.455187988281
21
115.000004632448
0
LINE
8
LAYER14
62
8
10
33.455187988281
20
115.000004632448
11
33.286437988281
21
115.300004632448
0
LINE
8
LAYER14
62
8
10
34.411437988281
20
142.122086435728
11
34.242687988281
21
142.122086435728
0
LINE
8
LAYER14
62
8
10
34.242687988281
20
142.122086435728
11
33.286437988281
21
141.622086435728
0
LINE
8
LAYER14
62
8
10
33.286437988281
20
141.622086435728
11
33.286437988281
21
140.422086435728
0
LINE
8
LAYER14
62
8
10
33.286437988281
20
140.422086435728
11
33.455187988281
21
140.122086435728
0
LINE
8
LAYER14
62
8
10
33.455187988281
20
140.122086435728
11
34.242687988281
21
140.122086435728
0
LINE
8
LAYER14
62
8
10
34.242687988281
20
140.122086435728
11
34.411437988281
21
140.422086435728
0
LINE
8
LAYER14
62
8
10
34.411437988281
20
140.422086435728
11
34.411437988281
21
141.022086435728
0
LINE
8
LAYER14
62
8
10
34.411437988281
20
141.022086435728
11
34.242687988281
21
141.322086435728
0
LINE
8
LAYER14
62
8
10
34.242687988281
20
141.322086435728
11
33.286437988281
21
141.322086435728
0
LINE
8
LAYER14
62
8
10
34.291433216234
20
170.323646345101
11
34.291433216234
21
170.623646345101
0
LINE
8
LAYER14
62
8
10
34.291433216234
20
170.623646345101
11
35.416433216234
21
170.623646345101
0
LINE
8
LAYER14
62
8
10
35.416433216234
20
170.623646345101
11
35.416433216234
21
169.923646345101
0
LINE
8
LAYER14
62
8
10
35.416433216234
20
169.923646345101
11
34.853933216234
21
169.423646345101
0
LINE
8
LAYER14
62
8
10
34.853933216234
20
169.423646345101
11
34.853933216234
21
168.623646345101
0
LINE
8
LAYER14
62
8
10
61.264066646414
20
197.810498377100
11
61.095316646414
21
198.110498377100
0
LINE
8
LAYER14
62
8
10
61.095316646414
20
198.110498377100
11
61.095316646414
21
198.510498377100
0
LINE
8
LAYER14
62
8
10
61.095316646414
20
198.510498377100
11
61.264066646414
21
198.810498377100
0
LINE
8
LAYER14
62
8
10
61.264066646414
20
198.810498377100
11
62.051566646414
21
198.810498377100
0
LINE
8
LAYER14
62
8
10
62.051566646414
20
198.810498377100
11
62.220316646414
21
198.510498377100
0
LINE
8
LAYER14
62
8
10
62.220316646414
20
198.510498377100
11
62.220316646414
21
198.110498377100
0
LINE
8
LAYER14
62
8
10
62.220316646414
20
198.110498377100
11
62.051566646414
21
197.810498377100
0
LINE
8
LAYER14
62
8
10
62.051566646414
20
197.810498377100
11
61.264066646414
21
197.810498377100
0
LINE
8
LAYER14
62
8
10
61.264066646414
20
198.810498377100
11
61.095316646414
21
199.110498377100
0
LINE
8
LAYER14
62
8
10
61.095316646414
20
199.110498377100
11
61.095316646414
21
199.510498377100
0
LINE
8
LAYER14
62
8
10
61.095316646414
20
199.510498377100
11
61.264066646414
21
199.810498377100
0
LINE
8
LAYER14
62
8
10
61.264066646414
20
199.810498377100
11
62.051566646414
21
199.810498377100
0
LINE
8
LAYER14
62
8
10
62.051566646414
20
199.810498377100
11
62.220316646414
21
199.510498377100
0
LINE
8
LAYER14
62
8
10
62.220316646414
20
199.510498377100
11
62.220316646414
21
199.110498377100
0
LINE
8
LAYER14
62
8
10
62.220316646414
20
199.110498377100
11
62.051566646414
21
198.810498377100
0
LINE
8
LAYER14
62
8
10
91.000000000000
20
200.013562011719
11
91.168750000000
21
199.713562011719
0
LINE
8
LAYER14
62
8
10
91.168750000000
20
199.713562011719
11
91.956250000000
21
199.713562011719
0
LINE
8
LAYER14
62
8
10
91.956250000000
20
199.713562011719
11
92.125000000000
21
200.013562011719
0
LINE
8
LAYER14
62
8
10
92.125000000000
20
200.013562011719
11
92.125000000000
21
201.413562011719
0
LINE
8
LAYER14
62
8
10
92.125000000000
20
201.413562011719
11
91.956250000000
21
201.713562011719
0
LINE
8
LAYER14
62
8
10
91.956250000000
20
201.713562011719
11
91.168750000000
21
201.713562011719
0
LINE
8
LAYER14
62
8
10
91.168750000000
20
201.713562011719
11
91.000000000000
21
201.413562011719
0
LINE
8
LAYER14
62
8
10
91.000000000000
20
201.413562011719
11
91.000000000000
21
201.013562011719
0
LINE
8
LAYER14
62
8
10
91.000000000000
20
201.013562011719
11
91.168750000000
21
200.713562011719
0
LINE
8
LAYER14
62
8
10
91.168750000000
20
200.713562011719
11
92.125000000000
21
200.713562011719
0
LINE
8
LAYER14
62
8
10
116.225000000000
20
201.113562011719
11
116.562500000000
21
201.713562011719
0
LINE
8
LAYER14
62
8
10
116.562500000000
20
201.713562011719
11
116.562500000000
21
199.713562011719
0
LINE
8
LAYER14
62
8
10
116.337500000000
20
199.713562011719
11
116.787500000000
21
199.713562011719
0
LINE
8
LAYER14
62
8
10
117.781250000000
20
199.713562011719
11
118.343750000000
21
199.713562011719
0
LINE
8
LAYER14
62
8
10
118.343750000000
20
199.713562011719
11
118.625000000000
21
200.213562011719
0
LINE
8
LAYER14
62
8
10
118.625000000000
20
200.213562011719
11
118.625000000000
21
201.213562011719
0
LINE
8
LAYER14
62
8
10
118.625000000000
20
201.213562011719
11
118.343750000000
21
201.713562011719
0
LINE
8
LAYER14
62
8
10
118.343750000000
20
201.713562011719
11
117.781250000000
21
201.713562011719
0
LINE
8
LAYER14
62
8
10
117.781250000000
20
201.713562011719
11
117.500000000000
21
201.213562011719
0
LINE
8
LAYER14
62
8
10
117.500000000000
20
201.213562011719
11
117.500000000000
21
200.213562011719
0
LINE
8
LAYER14
62
8
10
117.500000000000
20
200.213562011719
11
117.781250000000
21
199.713562011719
0
LINE
8
LAYER14
62
8
10
141.225000000000
20
201.113562011719
11
141.562500000000
21
201.713562011719
0
LINE
8
LAYER14
62
8
10
141.562500000000
20
201.713562011719
11
141.562500000000
21
199.713562011719
0
LINE
8
LAYER14
62
8
10
141.337500000000
20
199.713562011719
11
141.787500000000
21
199.713562011719
0
LINE
8
LAYER14
62
8
10
142.725000000000
20
201.113562011719
11
143.062500000000
21
201.713562011719
0
LINE
8
LAYER14
62
8
10
143.062500000000
20
201.713562011719
11
143.062500000000
21
199.713562011719
0
LINE
8
LAYER14
62
8
10
142.837500000000
20
199.713562011719
11
143.287500000000
21
199.713562011719
0
LINE
8
LAYER14
62
8
10
166.225000000000
20
201.113562011719
11
166.562500000000
21
201.713562011719
0
LINE
8
LAYER14
62
8
10
166.562500000000
20
201.713562011719
11
166.562500000000
21
199.713562011719
0
LINE
8
LAYER14
62
8
10
166.337500000000
20
199.713562011719
11
166.787500000000
21
199.713562011719
0
LINE
8
LAYER14
62
8
10
167.500000000000
20
201.413562011719
11
167.668750000000
21
201.713562011719
0
LINE
8
LAYER14
62
8
10
167.668750000000
20
201.713562011719
11
168.456250000000
21
201.713562011719
0
LINE
8
LAYER14
62
8
10
168.456250000000
20
201.713562011719
11
168.625000000000
21
201.413562011719
0
LINE
8
LAYER14
62
8
10
168.625000000000
20
201.413562011719
11
168.625000000000
21
201.113562011719
0
LINE
8
LAYER14
62
8
10
168.625000000000
20
201.113562011719
11
167.500000000000
21
200.013562011719
0
LINE
8
LAYER14
62
8
10
167.500000000000
20
200.013562011719
11
167.500000000000
21
199.713562011719
0
LINE
8
LAYER14
62
8
10
167.500000000000
20
199.713562011719
11
168.625000000000
21
199.713562011719
0
LINE
8
LAYER14
62
8
10
168.625000000000
20
199.713562011719
11
168.625000000000
21
200.013562011719
0
LINE
8
LAYER14
62
8
10
191.225000000000
20
201.113562011719
11
191.562500000000
21
201.713562011719
0
LINE
8
LAYER14
62
8
10
191.562500000000
20
201.713562011719
11
191.562500000000
21
199.713562011719
0
LINE
8
LAYER14
62
8
10
191.337500000000
20
199.713562011719
11
191.787500000000
21
199.713562011719
0
LINE
8
LAYER14
62
8
10
192.500000000000
20
201.513562011719
11
192.612500000000
21
201.713562011719
0
LINE
8
LAYER14
62
8
10
192.612500000000
20
201.713562011719
11
193.512500000000
21
201.713562011719
0
LINE
8
LAYER14
62
8
10
193.512500000000
20
201.713562011719
11
193.625000000000
21
201.513562011719
0
LINE
8
LAYER14
62
8
10
193.625000000000
20
201.513562011719
11
193.625000000000
21
201.113562011719
0
LINE
8
LAYER14
62
8
10
193.625000000000
20
201.113562011719
11
193.512500000000
21
200.913562011719
0
LINE
8
LAYER14
62
8
10
193.512500000000
20
200.913562011719
11
192.837500000000
21
200.913562011719
0
LINE
8
LAYER14
62
8
10
193.512500000000
20
200.913562011719
11
193.625000000000
21
200.713562011719
0
LINE
8
LAYER14
62
8
10
193.625000000000
20
200.713562011719
11
193.625000000000
21
199.913562011719
0
LINE
8
LAYER14
62
8
10
193.625000000000
20
199.913562011719
11
193.512500000000
21
199.713562011719
0
LINE
8
LAYER14
62
8
10
193.512500000000
20
199.713562011719
11
192.612500000000
21
199.713562011719
0
LINE
8
LAYER14
62
8
10
192.612500000000
20
199.713562011719
11
192.500000000000
21
199.913562011719
0
LINE
8
LAYER14
62
8
10
216.225000000000
20
201.113562011719
11
216.562500000000
21
201.713562011719
0
LINE
8
LAYER14
62
8
10
216.562500000000
20
201.713562011719
11
216.562500000000
21
199.713562011719
0
LINE
8
LAYER14
62
8
10
216.337500000000
20
199.713562011719
11
216.787500000000
21
199.713562011719
0
LINE
8
LAYER14
62
8
10
217.500000000000
20
201.713562011719
11
217.500000000000
21
200.913562011719
0
LINE
8
LAYER14
62
8
10
217.500000000000
20
200.913562011719
11
218.625000000000
21
200.913562011719
0
LINE
8
LAYER14
62
8
10
218.625000000000
20
201.713562011719
11
218.625000000000
21
199.713562011719
0
LINE
8
LAYER14
62
8
10
241.225000000000
20
201.113562011719
11
241.562500000000
21
201.713562011719
0
LINE
8
LAYER14
62
8
10
241.562500000000
20
201.713562011719
11
241.562500000000
21
199.713562011719
0
LINE
8
LAYER14
62
8
10
241.337500000000
20
199.713562011719
11
241.787500000000
21
199.713562011719
0
LINE
8
LAYER14
62
8
10
243.625000000000
20
201.713562011719
11
242.500000000000
21
201.713562011719
0
LINE
8
LAYER14
62
8
10
242.500000000000
20
201.713562011719
11
242.500000000000
21
200.913562011719
0
LINE
8
LAYER14
62
8
10
242.500000000000
20
200.913562011719
11
243.456250000000
21
200.913562011719
0
LINE
8
LAYER14
62
8
10
243.456250000000
20
200.913562011719
11
243.625000000000
21
200.613562011719
0
LINE
8
LAYER14
62
8
10
243.625000000000
20
200.613562011719
11
243.625000000000
21
200.013562011719
0
LINE
8
LAYER14
62
8
10
243.625000000000
20
200.013562011719
11
243.456250000000
21
199.713562011719
0
LINE
8
LAYER14
62
8
10
243.456250000000
20
199.713562011719
11
242.668750000000
21
199.713562011719
0
LINE
8
LAYER14
62
8
10
242.668750000000
20
199.713562011719
11
242.500000000000
21
200.013562011719
0
ENDSEC
0
EOF
