0
SECTION
2
HEADER
0
ENDSEC
0
SECTION
2
TABLES
0
TABLE
2
LTYPE
70
1
0
LTYPE
2
CONTINUOUS
70
64
3
Solid line
72
65
73
0
40
0
0
ENDTAB
0
TABLE
2
LAYER
70
20
0
LAYER
2
COMPASS
70
0
62
1
6
CONTINUOUS
0
LAYER
2
LAYER1
70
0
62
1
6
CONTINUOUS
0
LAYER
2
LAYER2
70
0
62
1
6
CONTINUOUS
0
LAYER
2
LAYER3
70
0
62
1
6
CONTINUOUS
0
LAYER
2
LAYER4
70
0
62
1
6
CONTINUOUS
0
LAYER
2
LAYER5
70
0
62
1
6
CONTINUOUS
0
LAYER
2
LAYER6
70
0
62
1
6
CONTINUOUS
0
LAYER
2
LAYER7
70
0
62
1
6
CONTINUOUS
0
LAYER
2
LAYER8
70
0
62
1
6
CONTINUOUS
0
LAYER
2
LAYER9
70
0
62
1
6
CONTINUOUS
0
LAYER
2
LAYER10
70
0
62
1
6
CONTINUOUS
0
LAYER
2
LAYER11
70
0
62
1
6
CONTINUOUS
0
LAYER
2
LAYER12
70
0
62
1
6
CONTINUOUS
0
LAYER
2
LAYER13
70
0
62
1
6
CONTINUOUS
0
LAYER
2
LAYER14
70
0
62
1
6
CONTINUOUS
0
LAYER
2
LAYER15
70
0
62
1
6
CONTINUOUS
0
LAYER
2
LAYER16
70
0
62
1
6
CONTINUOUS
0
LAYER
2
LAYER17
70
0
62
1
6
CONTINUOUS
0
LAYER
2
LAYER18
70
0
62
1
6
CONTINUOUS
0
LAYER
2
LAYER19
70
0
62
1
6
CONTINUOUS
0
ENDTAB
0
ENDSEC
0
SECTION
2
BLOCKS
0
ENDSEC
0
SECTION
2
ENTITIES
0
LINE
8
LAYER1
62
1
10
95.500000000000
20
21.000004632448
11
14.500000000000
21
21.000004632448
0
LINE
8
LAYER1
62
1
10
97.500000000000
20
49.000004632448
11
97.500000000000
21
28.000004632448
0
LINE
8
LAYER1
62
1
10
97.500000000000
20
28.000004632448
11
95.500000000000
21
28.000004632448
0
LINE
8
LAYER1
62
1
10
95.500000000000
20
28.000004632448
11
95.500000000000
21
21.000004632448
0
LINE
8
LAYER1
62
1
10
14.500000000000
20
21.000004632448
11
14.500000000000
21
49.000004632448
0
LINE
8
LAYER1
62
1
10
14.500000000000
20
49.000004632448
11
97.500000000000
21
49.000004632448
0
LINE
8
LAYER1
62
1
10
97.500000000000
20
46.000004632448
11
14.500000000000
21
46.000004632448
0
LINE
8
LAYER1
62
1
10
97.500000000000
20
74.000004632448
11
97.500000000000
21
46.000004632448
0
LINE
8
LAYER1
62
1
10
14.500000000000
20
46.000004632448
11
14.500000000000
21
74.000004632448
0
LINE
8
LAYER1
62
1
10
14.500000000000
20
74.000004632448
11
97.500000000000
21
74.000004632448
0
LINE
8
LAYER1
62
1
10
97.500000000000
20
71.000004632448
11
14.500000000000
21
71.000004632448
0
LINE
8
LAYER1
62
1
10
97.500000000000
20
99.000004632448
11
97.500000000000
21
71.000004632448
0
LINE
8
LAYER1
62
1
10
14.500000000000
20
71.000004632448
11
14.500000000000
21
99.000004632448
0
LINE
8
LAYER1
62
1
10
14.500000000000
20
99.000004632448
11
97.500000000000
21
99.000004632448
0
LINE
8
LAYER1
62
1
10
97.500000000000
20
96.000004632448
11
14.500000000000
21
96.000004632448
0
LINE
8
LAYER1
62
1
10
97.500000000000
20
124.000004632448
11
97.500000000000
21
96.000004632448
0
LINE
8
LAYER1
62
1
10
14.500000000000
20
96.000004632448
11
14.500000000000
21
124.000004632448
0
LINE
8
LAYER1
62
1
10
14.500000000000
20
124.000004632448
11
97.500000000000
21
124.000004632448
0
LINE
8
LAYER1
62
1
10
97.500000000000
20
121.000004632448
11
14.500000000000
21
121.000004632448
0
LINE
8
LAYER1
62
1
10
97.500000000000
20
149.000004632448
11
97.500000000000
21
121.000004632448
0
LINE
8
LAYER1
62
1
10
14.500000000000
20
121.000004632448
11
14.500000000000
21
149.000004632448
0
LINE
8
LAYER1
62
1
10
14.500000000000
20
149.000004632448
11
97.500000000000
21
149.000004632448
0
LINE
8
LAYER1
62
1
10
97.500000000000
20
146.000004632448
11
14.500000000000
21
146.000004632448
0
LINE
8
LAYER1
62
1
10
97.500000000000
20
156.392514459729
11
97.500000000000
21
146.000004632448
0
LINE
8
LAYER1
62
1
10
14.500000000000
20
146.000004632448
11
14.500000000000
21
194.291427693164
0
LINE
8
LAYER1
62
1
10
14.500000000000
20
194.291427693164
11
97.500000000000
21
156.392514459729
0
LINE
8
LAYER1
62
1
10
97.500000000000
20
153.094566267918
11
14.500000000000
21
190.993479501352
0
LINE
8
LAYER1
62
1
10
95.500000000000
20
166.616311916939
11
95.500000000000
21
159.500000000000
0
LINE
8
LAYER1
62
1
10
95.500000000000
20
159.500000000000
11
97.500000000000
21
159.500000000000
0
LINE
8
LAYER1
62
1
10
97.500000000000
20
159.500000000000
11
97.500000000000
21
153.094566267918
0
LINE
8
LAYER1
62
1
10
14.500000000000
20
190.993479501352
11
14.500000000000
21
248.500000000000
0
LINE
8
LAYER1
62
1
10
14.500000000000
20
248.500000000000
11
17.107008023435
21
248.500000000000
0
LINE
8
LAYER1
62
1
10
17.107008023435
20
248.500000000000
11
95.500000000000
21
166.616311916939
0
LINE
8
LAYER1
62
1
10
95.500000000000
20
162.278184234023
11
14.500000000000
21
246.884965624772
0
LINE
8
LAYER1
62
1
10
101.301709471510
20
167.500000000000
11
95.500000000000
21
167.500000000000
0
LINE
8
LAYER1
62
1
10
95.500000000000
20
167.500000000000
11
95.500000000000
21
162.278184234023
0
LINE
8
LAYER1
62
1
10
14.500000000000
20
246.884965624772
11
14.500000000000
21
248.500000000000
0
LINE
8
LAYER1
62
1
10
14.500000000000
20
248.500000000000
11
76.989905066415
21
248.500000000000
0
LINE
8
LAYER1
62
1
10
76.989905066415
20
248.500000000000
11
101.301709471510
21
167.500000000000
0
LINE
8
LAYER1
62
1
10
98.169491862294
20
167.500000000000
11
73.857687457199
21
248.500000000000
0
LINE
8
LAYER1
62
1
10
115.000000000000
20
165.500000000000
11
103.500000000000
21
165.500000000000
0
LINE
8
LAYER1
62
1
10
103.500000000000
20
165.500000000000
11
103.500000000000
21
167.500000000000
0
LINE
8
LAYER1
62
1
10
103.500000000000
20
167.500000000000
11
98.169491862294
21
167.500000000000
0
LINE
8
LAYER1
62
1
10
73.857687457199
20
248.500000000000
11
115.000000000000
21
248.500000000000
0
LINE
8
LAYER1
62
1
10
115.000000000000
20
248.500000000000
11
115.000000000000
21
165.500000000000
0
LINE
8
LAYER1
62
1
10
112.000000000000
20
165.500000000000
11
112.000000000000
21
248.500000000000
0
LINE
8
LAYER1
62
1
10
140.000000000000
20
165.500000000000
11
112.000000000000
21
165.500000000000
0
LINE
8
LAYER1
62
1
10
112.000000000000
20
248.500000000000
11
140.000000000000
21
248.500000000000
0
LINE
8
LAYER1
62
1
10
140.000000000000
20
248.500000000000
11
140.000000000000
21
165.500000000000
0
LINE
8
LAYER1
62
1
10
137.000000000000
20
165.500000000000
11
137.000000000000
21
248.500000000000
0
LINE
8
LAYER1
62
1
10
165.000000000000
20
165.500000000000
11
137.000000000000
21
165.500000000000
0
LINE
8
LAYER1
62
1
10
137.000000000000
20
248.500000000000
11
165.000000000000
21
248.500000000000
0
LINE
8
LAYER1
62
1
10
165.000000000000
20
248.500000000000
11
165.000000000000
21
165.500000000000
0
LINE
8
LAYER1
62
1
10
162.000000000000
20
165.500000000000
11
162.000000000000
21
248.500000000000
0
LINE
8
LAYER1
62
1
10
190.000000000000
20
165.500000000000
11
162.000000000000
21
165.500000000000
0
LINE
8
LAYER1
62
1
10
162.000000000000
20
248.500000000000
11
190.000000000000
21
248.500000000000
0
LINE
8
LAYER1
62
1
10
190.000000000000
20
248.500000000000
11
190.000000000000
21
165.500000000000
0
LINE
8
LAYER1
62
1
10
187.000000000000
20
165.500000000000
11
187.000000000000
21
248.500000000000
0
LINE
8
LAYER1
62
1
10
215.000000000000
20
165.500000000000
11
187.000000000000
21
165.500000000000
0
LINE
8
LAYER1
62
1
10
187.000000000000
20
248.500000000000
11
215.000000000000
21
248.500000000000
0
LINE
8
LAYER1
62
1
10
215.000000000000
20
248.500000000000
11
215.000000000000
21
165.500000000000
0
LINE
8
LAYER1
62
1
10
212.000000000000
20
165.500000000000
11
212.000000000000
21
248.500000000000
0
LINE
8
LAYER1
62
1
10
240.000000000000
20
165.500000000000
11
212.000000000000
21
165.500000000000
0
LINE
8
LAYER1
62
1
10
212.000000000000
20
248.500000000000
11
240.000000000000
21
248.500000000000
0
LINE
8
LAYER1
62
1
10
240.000000000000
20
248.500000000000
11
240.000000000000
21
165.500000000000
0
LINE
8
LAYER1
62
1
10
237.000000000000
20
165.500000000000
11
237.000000000000
21
248.500000000000
0
LINE
8
LAYER1
62
1
10
265.000000000000
20
167.500000000000
11
257.000000000000
21
167.500000000000
0
LINE
8
LAYER1
62
1
10
257.000000000000
20
167.500000000000
11
257.000000000000
21
165.500000000000
0
LINE
8
LAYER1
62
1
10
257.000000000000
20
165.500000000000
11
237.000000000000
21
165.500000000000
0
LINE
8
LAYER1
62
1
10
237.000000000000
20
248.500000000000
11
265.000000000000
21
248.500000000000
0
LINE
8
LAYER1
62
1
10
265.000000000000
20
248.500000000000
11
265.000000000000
21
246.000000000000
0
LINE
8
LAYER1
62
1
10
265.000000000000
20
243.500000000000
11
265.000000000000
21
241.000000000000
0
LINE
8
LAYER1
62
1
10
265.000000000000
20
238.500000000000
11
265.000000000000
21
236.000000000000
0
LINE
8
LAYER1
62
1
10
265.000000000000
20
233.500000000000
11
265.000000000000
21
231.000000000000
0
LINE
8
LAYER1
62
1
10
265.000000000000
20
228.500000000000
11
265.000000000000
21
226.000000000000
0
LINE
8
LAYER1
62
1
10
265.000000000000
20
223.500000000000
11
265.000000000000
21
221.000000000000
0
LINE
8
LAYER1
62
1
10
265.000000000000
20
218.500000000000
11
265.000000000000
21
216.000000000000
0
LINE
8
LAYER1
62
1
10
265.000000000000
20
213.500000000000
11
265.000000000000
21
211.000000000000
0
LINE
8
LAYER1
62
1
10
265.000000000000
20
208.500000000000
11
265.000000000000
21
206.000000000000
0
LINE
8
LAYER1
62
1
10
265.000000000000
20
203.500000000000
11
265.000000000000
21
201.000000000000
0
LINE
8
LAYER1
62
1
10
265.000000000000
20
198.500000000000
11
265.000000000000
21
196.000000000000
0
LINE
8
LAYER1
62
1
10
265.000000000000
20
193.500000000000
11
265.000000000000
21
191.000000000000
0
LINE
8
LAYER1
62
1
10
265.000000000000
20
188.500000000000
11
265.000000000000
21
186.000000000000
0
LINE
8
LAYER1
62
1
10
265.000000000000
20
183.500000000000
11
265.000000000000
21
181.000000000000
0
LINE
8
LAYER1
62
1
10
265.000000000000
20
178.500000000000
11
265.000000000000
21
176.000000000000
0
LINE
8
LAYER1
62
1
10
265.000000000000
20
173.500000000000
11
265.000000000000
21
171.000000000000
0
LINE
8
LAYER1
62
1
10
265.000000000000
20
168.500000000000
11
265.000000000000
21
167.500000000000
0
LINE
8
LAYER2
62
2
10
93.500000000000
20
24.000004632448
11
91.000000000000
21
24.000004632448
0
LINE
8
LAYER2
62
2
10
88.500000000000
20
24.000004632448
11
86.000000000000
21
24.000004632448
0
LINE
8
LAYER2
62
2
10
83.500000000000
20
24.000004632448
11
81.000000000000
21
24.000004632448
0
LINE
8
LAYER2
62
2
10
78.500000000000
20
24.000004632448
11
76.000000000000
21
24.000004632448
0
LINE
8
LAYER2
62
2
10
73.500000000000
20
24.000004632448
11
71.000000000000
21
24.000004632448
0
LINE
8
LAYER2
62
2
10
68.500000000000
20
24.000004632448
11
66.000000000000
21
24.000004632448
0
LINE
8
LAYER2
62
2
10
63.500000000000
20
24.000004632448
11
61.000000000000
21
24.000004632448
0
LINE
8
LAYER2
62
2
10
58.500000000000
20
24.000004632448
11
56.000000000000
21
24.000004632448
0
LINE
8
LAYER2
62
2
10
53.500000000000
20
24.000004632448
11
51.000000000000
21
24.000004632448
0
LINE
8
LAYER2
62
2
10
48.500000000000
20
24.000004632448
11
46.000000000000
21
24.000004632448
0
LINE
8
LAYER2
62
2
10
43.500000000000
20
24.000004632448
11
41.000000000000
21
24.000004632448
0
LINE
8
LAYER2
62
2
10
38.500000000000
20
24.000004632448
11
36.000000000000
21
24.000004632448
0
LINE
8
LAYER2
62
2
10
33.500000000000
20
24.000004632448
11
31.000000000000
21
24.000004632448
0
LINE
8
LAYER2
62
2
10
28.500000000000
20
24.000004632448
11
26.000000000000
21
24.000004632448
0
LINE
8
LAYER2
62
2
10
23.500000000000
20
24.000004632448
11
21.000000000000
21
24.000004632448
0
LINE
8
LAYER2
62
2
10
18.500000000000
20
26.000004632448
11
21.000000000000
21
26.000004632448
0
LINE
8
LAYER2
62
2
10
23.500000000000
20
26.000004632448
11
26.000000000000
21
26.000004632448
0
LINE
8
LAYER2
62
2
10
28.500000000000
20
26.000004632448
11
31.000000000000
21
26.000004632448
0
LINE
8
LAYER2
62
2
10
33.500000000000
20
26.000004632448
11
36.000000000000
21
26.000004632448
0
LINE
8
LAYER2
62
2
10
38.500000000000
20
26.000004632448
11
41.000000000000
21
26.000004632448
0
LINE
8
LAYER2
62
2
10
43.500000000000
20
26.000004632448
11
46.000000000000
21
26.000004632448
0
LINE
8
LAYER2
62
2
10
48.500000000000
20
26.000004632448
11
51.000000000000
21
26.000004632448
0
LINE
8
LAYER2
62
2
10
53.500000000000
20
26.000004632448
11
56.000000000000
21
26.000004632448
0
LINE
8
LAYER2
62
2
10
58.500000000000
20
26.000004632448
11
61.000000000000
21
26.000004632448
0
LINE
8
LAYER2
62
2
10
63.500000000000
20
26.000004632448
11
66.000000000000
21
26.000004632448
0
LINE
8
LAYER2
62
2
10
68.500000000000
20
26.000004632448
11
71.000000000000
21
26.000004632448
0
LINE
8
LAYER2
62
2
10
73.500000000000
20
26.000004632448
11
76.000000000000
21
26.000004632448
0
LINE
8
LAYER2
62
2
10
78.500000000000
20
26.000004632448
11
81.000000000000
21
26.000004632448
0
LINE
8
LAYER2
62
2
10
83.500000000000
20
26.000004632448
11
86.000000000000
21
26.000004632448
0
LINE
8
LAYER2
62
2
10
88.500000000000
20
26.000004632448
11
91.000000000000
21
26.000004632448
0
LINE
8
LAYER2
62
2
10
93.500000000000
20
26.000004632448
11
93.500000000000
21
24.000004632448
0
LINE
8
LAYER2
62
2
10
18.500000000000
20
24.000004632448
11
18.500000000000
21
26.000004632448
0
LINE
8
LAYER2
62
2
10
93.500000000000
20
49.000004632448
11
91.000000000000
21
49.000004632448
0
LINE
8
LAYER2
62
2
10
88.500000000000
20
49.000004632448
11
86.000000000000
21
49.000004632448
0
LINE
8
LAYER2
62
2
10
83.500000000000
20
49.000004632448
11
81.000000000000
21
49.000004632448
0
LINE
8
LAYER2
62
2
10
78.500000000000
20
49.000004632448
11
76.000000000000
21
49.000004632448
0
LINE
8
LAYER2
62
2
10
73.500000000000
20
49.000004632448
11
71.000000000000
21
49.000004632448
0
LINE
8
LAYER2
62
2
10
68.500000000000
20
49.000004632448
11
66.000000000000
21
49.000004632448
0
LINE
8
LAYER2
62
2
10
63.500000000000
20
49.000004632448
11
61.000000000000
21
49.000004632448
0
LINE
8
LAYER2
62
2
10
58.500000000000
20
49.000004632448
11
56.000000000000
21
49.000004632448
0
LINE
8
LAYER2
62
2
10
53.500000000000
20
49.000004632448
11
51.000000000000
21
49.000004632448
0
LINE
8
LAYER2
62
2
10
48.500000000000
20
49.000004632448
11
46.000000000000
21
49.000004632448
0
LINE
8
LAYER2
62
2
10
43.500000000000
20
49.000004632448
11
41.000000000000
21
49.000004632448
0
LINE
8
LAYER2
62
2
10
38.500000000000
20
49.000004632448
11
36.000000000000
21
49.000004632448
0
LINE
8
LAYER2
62
2
10
33.500000000000
20
49.000004632448
11
31.000000000000
21
49.000004632448
0
LINE
8
LAYER2
62
2
10
28.500000000000
20
49.000004632448
11
26.000000000000
21
49.000004632448
0
LINE
8
LAYER2
62
2
10
23.500000000000
20
49.000004632448
11
21.000000000000
21
49.000004632448
0
LINE
8
LAYER2
62
2
10
18.500000000000
20
51.000004632448
11
21.000000000000
21
51.000004632448
0
LINE
8
LAYER2
62
2
10
23.500000000000
20
51.000004632448
11
26.000000000000
21
51.000004632448
0
LINE
8
LAYER2
62
2
10
28.500000000000
20
51.000004632448
11
31.000000000000
21
51.000004632448
0
LINE
8
LAYER2
62
2
10
33.500000000000
20
51.000004632448
11
36.000000000000
21
51.000004632448
0
LINE
8
LAYER2
62
2
10
38.500000000000
20
51.000004632448
11
41.000000000000
21
51.000004632448
0
LINE
8
LAYER2
62
2
10
43.500000000000
20
51.000004632448
11
46.000000000000
21
51.000004632448
0
LINE
8
LAYER2
62
2
10
48.500000000000
20
51.000004632448
11
51.000000000000
21
51.000004632448
0
LINE
8
LAYER2
62
2
10
53.500000000000
20
51.000004632448
11
56.000000000000
21
51.000004632448
0
LINE
8
LAYER2
62
2
10
58.500000000000
20
51.000004632448
11
61.000000000000
21
51.000004632448
0
LINE
8
LAYER2
62
2
10
63.500000000000
20
51.000004632448
11
66.000000000000
21
51.000004632448
0
LINE
8
LAYER2
62
2
10
68.500000000000
20
51.000004632448
11
71.000000000000
21
51.000004632448
0
LINE
8
LAYER2
62
2
10
73.500000000000
20
51.000004632448
11
76.000000000000
21
51.000004632448
0
LINE
8
LAYER2
62
2
10
78.500000000000
20
51.000004632448
11
81.000000000000
21
51.000004632448
0
LINE
8
LAYER2
62
2
10
83.500000000000
20
51.000004632448
11
86.000000000000
21
51.000004632448
0
LINE
8
LAYER2
62
2
10
88.500000000000
20
51.000004632448
11
91.000000000000
21
51.000004632448
0
LINE
8
LAYER2
62
2
10
93.500000000000
20
51.000004632448
11
93.500000000000
21
49.000004632448
0
LINE
8
LAYER2
62
2
10
18.500000000000
20
49.000004632448
11
18.500000000000
21
51.000004632448
0
LINE
8
LAYER2
62
2
10
93.500000000000
20
74.000004632448
11
91.000000000000
21
74.000004632448
0
LINE
8
LAYER2
62
2
10
88.500000000000
20
74.000004632448
11
86.000000000000
21
74.000004632448
0
LINE
8
LAYER2
62
2
10
83.500000000000
20
74.000004632448
11
81.000000000000
21
74.000004632448
0
LINE
8
LAYER2
62
2
10
78.500000000000
20
74.000004632448
11
76.000000000000
21
74.000004632448
0
LINE
8
LAYER2
62
2
10
73.500000000000
20
74.000004632448
11
71.000000000000
21
74.000004632448
0
LINE
8
LAYER2
62
2
10
68.500000000000
20
74.000004632448
11
66.000000000000
21
74.000004632448
0
LINE
8
LAYER2
62
2
10
63.500000000000
20
74.000004632448
11
61.000000000000
21
74.000004632448
0
LINE
8
LAYER2
62
2
10
58.500000000000
20
74.000004632448
11
56.000000000000
21
74.000004632448
0
LINE
8
LAYER2
62
2
10
53.500000000000
20
74.000004632448
11
51.000000000000
21
74.000004632448
0
LINE
8
LAYER2
62
2
10
48.500000000000
20
74.000004632448
11
46.000000000000
21
74.000004632448
0
LINE
8
LAYER2
62
2
10
43.500000000000
20
74.000004632448
11
41.000000000000
21
74.000004632448
0
LINE
8
LAYER2
62
2
10
38.500000000000
20
74.000004632448
11
36.000000000000
21
74.000004632448
0
LINE
8
LAYER2
62
2
10
33.500000000000
20
74.000004632448
11
31.000000000000
21
74.000004632448
0
LINE
8
LAYER2
62
2
10
28.500000000000
20
74.000004632448
11
26.000000000000
21
74.000004632448
0
LINE
8
LAYER2
62
2
10
23.500000000000
20
74.000004632448
11
21.000000000000
21
74.000004632448
0
LINE
8
LAYER2
62
2
10
18.500000000000
20
76.000004632448
11
21.000000000000
21
76.000004632448
0
LINE
8
LAYER2
62
2
10
23.500000000000
20
76.000004632448
11
26.000000000000
21
76.000004632448
0
LINE
8
LAYER2
62
2
10
28.500000000000
20
76.000004632448
11
31.000000000000
21
76.000004632448
0
LINE
8
LAYER2
62
2
10
33.500000000000
20
76.000004632448
11
36.000000000000
21
76.000004632448
0
LINE
8
LAYER2
62
2
10
38.500000000000
20
76.000004632448
11
41.000000000000
21
76.000004632448
0
LINE
8
LAYER2
62
2
10
43.500000000000
20
76.000004632448
11
46.000000000000
21
76.000004632448
0
LINE
8
LAYER2
62
2
10
48.500000000000
20
76.000004632448
11
51.000000000000
21
76.000004632448
0
LINE
8
LAYER2
62
2
10
53.500000000000
20
76.000004632448
11
56.000000000000
21
76.000004632448
0
LINE
8
LAYER2
62
2
10
58.500000000000
20
76.000004632448
11
61.000000000000
21
76.000004632448
0
LINE
8
LAYER2
62
2
10
63.500000000000
20
76.000004632448
11
66.000000000000
21
76.000004632448
0
LINE
8
LAYER2
62
2
10
68.500000000000
20
76.000004632448
11
71.000000000000
21
76.000004632448
0
LINE
8
LAYER2
62
2
10
73.500000000000
20
76.000004632448
11
76.000000000000
21
76.000004632448
0
LINE
8
LAYER2
62
2
10
78.500000000000
20
76.000004632448
11
81.000000000000
21
76.000004632448
0
LINE
8
LAYER2
62
2
10
83.500000000000
20
76.000004632448
11
86.000000000000
21
76.000004632448
0
LINE
8
LAYER2
62
2
10
88.500000000000
20
76.000004632448
11
91.000000000000
21
76.000004632448
0
LINE
8
LAYER2
62
2
10
93.500000000000
20
76.000004632448
11
93.500000000000
21
74.000004632448
0
LINE
8
LAYER2
62
2
10
18.500000000000
20
74.000004632448
11
18.500000000000
21
76.000004632448
0
LINE
8
LAYER2
62
2
10
93.500000000000
20
99.000004632448
11
91.000000000000
21
99.000004632448
0
LINE
8
LAYER2
62
2
10
88.500000000000
20
99.000004632448
11
86.000000000000
21
99.000004632448
0
LINE
8
LAYER2
62
2
10
83.500000000000
20
99.000004632448
11
81.000000000000
21
99.000004632448
0
LINE
8
LAYER2
62
2
10
78.500000000000
20
99.000004632448
11
76.000000000000
21
99.000004632448
0
LINE
8
LAYER2
62
2
10
73.500000000000
20
99.000004632448
11
71.000000000000
21
99.000004632448
0
LINE
8
LAYER2
62
2
10
68.500000000000
20
99.000004632448
11
66.000000000000
21
99.000004632448
0
LINE
8
LAYER2
62
2
10
63.500000000000
20
99.000004632448
11
61.000000000000
21
99.000004632448
0
LINE
8
LAYER2
62
2
10
58.500000000000
20
99.000004632448
11
56.000000000000
21
99.000004632448
0
LINE
8
LAYER2
62
2
10
53.500000000000
20
99.000004632448
11
51.000000000000
21
99.000004632448
0
LINE
8
LAYER2
62
2
10
48.500000000000
20
99.000004632448
11
46.000000000000
21
99.000004632448
0
LINE
8
LAYER2
62
2
10
43.500000000000
20
99.000004632448
11
41.000000000000
21
99.000004632448
0
LINE
8
LAYER2
62
2
10
38.500000000000
20
99.000004632448
11
36.000000000000
21
99.000004632448
0
LINE
8
LAYER2
62
2
10
33.500000000000
20
99.000004632448
11
31.000000000000
21
99.000004632448
0
LINE
8
LAYER2
62
2
10
28.500000000000
20
99.000004632448
11
26.000000000000
21
99.000004632448
0
LINE
8
LAYER2
62
2
10
23.500000000000
20
99.000004632448
11
21.000000000000
21
99.000004632448
0
LINE
8
LAYER2
62
2
10
18.500000000000
20
101.000004632448
11
21.000000000000
21
101.000004632448
0
LINE
8
LAYER2
62
2
10
23.500000000000
20
101.000004632448
11
26.000000000000
21
101.000004632448
0
LINE
8
LAYER2
62
2
10
28.500000000000
20
101.000004632448
11
31.000000000000
21
101.000004632448
0
LINE
8
LAYER2
62
2
10
33.500000000000
20
101.000004632448
11
36.000000000000
21
101.000004632448
0
LINE
8
LAYER2
62
2
10
38.500000000000
20
101.000004632448
11
41.000000000000
21
101.000004632448
0
LINE
8
LAYER2
62
2
10
43.500000000000
20
101.000004632448
11
46.000000000000
21
101.000004632448
0
LINE
8
LAYER2
62
2
10
48.500000000000
20
101.000004632448
11
51.000000000000
21
101.000004632448
0
LINE
8
LAYER2
62
2
10
53.500000000000
20
101.000004632448
11
56.000000000000
21
101.000004632448
0
LINE
8
LAYER2
62
2
10
58.500000000000
20
101.000004632448
11
61.000000000000
21
101.000004632448
0
LINE
8
LAYER2
62
2
10
63.500000000000
20
101.000004632448
11
66.000000000000
21
101.000004632448
0
LINE
8
LAYER2
62
2
10
68.500000000000
20
101.000004632448
11
71.000000000000
21
101.000004632448
0
LINE
8
LAYER2
62
2
10
73.500000000000
20
101.000004632448
11
76.000000000000
21
101.000004632448
0
LINE
8
LAYER2
62
2
10
78.500000000000
20
101.000004632448
11
81.000000000000
21
101.000004632448
0
LINE
8
LAYER2
62
2
10
83.500000000000
20
101.000004632448
11
86.000000000000
21
101.000004632448
0
LINE
8
LAYER2
62
2
10
88.500000000000
20
101.000004632448
11
91.000000000000
21
101.000004632448
0
LINE
8
LAYER2
62
2
10
93.500000000000
20
101.000004632448
11
93.500000000000
21
99.000004632448
0
LINE
8
LAYER2
62
2
10
18.500000000000
20
99.000004632448
11
18.500000000000
21
101.000004632448
0
LINE
8
LAYER2
62
2
10
93.500000000000
20
124.000004632448
11
91.000000000000
21
124.000004632448
0
LINE
8
LAYER2
62
2
10
88.500000000000
20
124.000004632448
11
86.000000000000
21
124.000004632448
0
LINE
8
LAYER2
62
2
10
83.500000000000
20
124.000004632448
11
81.000000000000
21
124.000004632448
0
LINE
8
LAYER2
62
2
10
78.500000000000
20
124.000004632448
11
76.000000000000
21
124.000004632448
0
LINE
8
LAYER2
62
2
10
73.500000000000
20
124.000004632448
11
71.000000000000
21
124.000004632448
0
LINE
8
LAYER2
62
2
10
68.500000000000
20
124.000004632448
11
66.000000000000
21
124.000004632448
0
LINE
8
LAYER2
62
2
10
63.500000000000
20
124.000004632448
11
61.000000000000
21
124.000004632448
0
LINE
8
LAYER2
62
2
10
58.500000000000
20
124.000004632448
11
56.000000000000
21
124.000004632448
0
LINE
8
LAYER2
62
2
10
53.500000000000
20
124.000004632448
11
51.000000000000
21
124.000004632448
0
LINE
8
LAYER2
62
2
10
48.500000000000
20
124.000004632448
11
46.000000000000
21
124.000004632448
0
LINE
8
LAYER2
62
2
10
43.500000000000
20
124.000004632448
11
41.000000000000
21
124.000004632448
0
LINE
8
LAYER2
62
2
10
38.500000000000
20
124.000004632448
11
36.000000000000
21
124.000004632448
0
LINE
8
LAYER2
62
2
10
33.500000000000
20
124.000004632448
11
31.000000000000
21
124.000004632448
0
LINE
8
LAYER2
62
2
10
28.500000000000
20
124.000004632448
11
26.000000000000
21
124.000004632448
0
LINE
8
LAYER2
62
2
10
23.500000000000
20
124.000004632448
11
21.000000000000
21
124.000004632448
0
LINE
8
LAYER2
62
2
10
18.500000000000
20
126.000004632448
11
21.000000000000
21
126.000004632448
0
LINE
8
LAYER2
62
2
10
23.500000000000
20
126.000004632448
11
26.000000000000
21
126.000004632448
0
LINE
8
LAYER2
62
2
10
28.500000000000
20
126.000004632448
11
31.000000000000
21
126.000004632448
0
LINE
8
LAYER2
62
2
10
33.500000000000
20
126.000004632448
11
36.000000000000
21
126.000004632448
0
LINE
8
LAYER2
62
2
10
38.500000000000
20
126.000004632448
11
41.000000000000
21
126.000004632448
0
LINE
8
LAYER2
62
2
10
43.500000000000
20
126.000004632448
11
46.000000000000
21
126.000004632448
0
LINE
8
LAYER2
62
2
10
48.500000000000
20
126.000004632448
11
51.000000000000
21
126.000004632448
0
LINE
8
LAYER2
62
2
10
53.500000000000
20
126.000004632448
11
56.000000000000
21
126.000004632448
0
LINE
8
LAYER2
62
2
10
58.500000000000
20
126.000004632448
11
61.000000000000
21
126.000004632448
0
LINE
8
LAYER2
62
2
10
63.500000000000
20
126.000004632448
11
66.000000000000
21
126.000004632448
0
LINE
8
LAYER2
62
2
10
68.500000000000
20
126.000004632448
11
71.000000000000
21
126.000004632448
0
LINE
8
LAYER2
62
2
10
73.500000000000
20
126.000004632448
11
76.000000000000
21
126.000004632448
0
LINE
8
LAYER2
62
2
10
78.500000000000
20
126.000004632448
11
81.000000000000
21
126.000004632448
0
LINE
8
LAYER2
62
2
10
83.500000000000
20
126.000004632448
11
86.000000000000
21
126.000004632448
0
LINE
8
LAYER2
62
2
10
88.500000000000
20
126.000004632448
11
91.000000000000
21
126.000004632448
0
LINE
8
LAYER2
62
2
10
93.500000000000
20
126.000004632448
11
93.500000000000
21
124.000004632448
0
LINE
8
LAYER2
62
2
10
18.500000000000
20
124.000004632448
11
18.500000000000
21
126.000004632448
0
LINE
8
LAYER2
62
2
10
93.500000000000
20
149.000004632448
11
91.000000000000
21
149.000004632448
0
LINE
8
LAYER2
62
2
10
88.500000000000
20
149.000004632448
11
86.000000000000
21
149.000004632448
0
LINE
8
LAYER2
62
2
10
83.500000000000
20
149.000004632448
11
81.000000000000
21
149.000004632448
0
LINE
8
LAYER2
62
2
10
78.500000000000
20
149.000004632448
11
76.000000000000
21
149.000004632448
0
LINE
8
LAYER2
62
2
10
73.500000000000
20
149.000004632448
11
71.000000000000
21
149.000004632448
0
LINE
8
LAYER2
62
2
10
68.500000000000
20
149.000004632448
11
66.000000000000
21
149.000004632448
0
LINE
8
LAYER2
62
2
10
63.500000000000
20
149.000004632448
11
61.000000000000
21
149.000004632448
0
LINE
8
LAYER2
62
2
10
58.500000000000
20
149.000004632448
11
56.000000000000
21
149.000004632448
0
LINE
8
LAYER2
62
2
10
53.500000000000
20
149.000004632448
11
51.000000000000
21
149.000004632448
0
LINE
8
LAYER2
62
2
10
48.500000000000
20
149.000004632448
11
46.000000000000
21
149.000004632448
0
LINE
8
LAYER2
62
2
10
43.500000000000
20
149.000004632448
11
41.000000000000
21
149.000004632448
0
LINE
8
LAYER2
62
2
10
38.500000000000
20
149.000004632448
11
36.000000000000
21
149.000004632448
0
LINE
8
LAYER2
62
2
10
33.500000000000
20
149.000004632448
11
31.000000000000
21
149.000004632448
0
LINE
8
LAYER2
62
2
10
28.500000000000
20
149.000004632448
11
26.000000000000
21
149.000004632448
0
LINE
8
LAYER2
62
2
10
23.500000000000
20
149.000004632448
11
21.000000000000
21
149.000004632448
0
LINE
8
LAYER2
62
2
10
18.500000000000
20
151.000004632448
11
21.000000000000
21
151.000004632448
0
LINE
8
LAYER2
62
2
10
23.500000000000
20
151.000004632448
11
26.000000000000
21
151.000004632448
0
LINE
8
LAYER2
62
2
10
28.500000000000
20
151.000004632448
11
31.000000000000
21
151.000004632448
0
LINE
8
LAYER2
62
2
10
33.500000000000
20
151.000004632448
11
36.000000000000
21
151.000004632448
0
LINE
8
LAYER2
62
2
10
38.500000000000
20
151.000004632448
11
41.000000000000
21
151.000004632448
0
LINE
8
LAYER2
62
2
10
43.500000000000
20
151.000004632448
11
46.000000000000
21
151.000004632448
0
LINE
8
LAYER2
62
2
10
48.500000000000
20
151.000004632448
11
51.000000000000
21
151.000004632448
0
LINE
8
LAYER2
62
2
10
53.500000000000
20
151.000004632448
11
56.000000000000
21
151.000004632448
0
LINE
8
LAYER2
62
2
10
58.500000000000
20
151.000004632448
11
61.000000000000
21
151.000004632448
0
LINE
8
LAYER2
62
2
10
63.500000000000
20
151.000004632448
11
66.000000000000
21
151.000004632448
0
LINE
8
LAYER2
62
2
10
68.500000000000
20
151.000004632448
11
71.000000000000
21
151.000004632448
0
LINE
8
LAYER2
62
2
10
73.500000000000
20
151.000004632448
11
76.000000000000
21
151.000004632448
0
LINE
8
LAYER2
62
2
10
78.500000000000
20
151.000004632448
11
81.000000000000
21
151.000004632448
0
LINE
8
LAYER2
62
2
10
83.500000000000
20
151.000004632448
11
86.000000000000
21
151.000004632448
0
LINE
8
LAYER2
62
2
10
88.500000000000
20
151.000004632448
11
91.000000000000
21
151.000004632448
0
LINE
8
LAYER2
62
2
10
93.500000000000
20
151.000004632448
11
93.500000000000
21
149.000004632448
0
LINE
8
LAYER2
62
2
10
18.500000000000
20
149.000004632448
11
18.500000000000
21
151.000004632448
0
LINE
8
LAYER2
62
2
10
92.136259886664
20
158.841670136380
11
89.862118643748
21
159.880073529704
0
LINE
8
LAYER2
62
2
10
87.587977400831
20
160.918476923027
11
85.313836157915
21
161.956880316351
0
LINE
8
LAYER2
62
2
10
83.039694914998
20
162.995283709675
11
80.765553672082
21
164.033687102998
0
LINE
8
LAYER2
62
2
10
78.491412429165
20
165.072090496322
11
76.217271186249
21
166.110493889646
0
LINE
8
LAYER2
62
2
10
73.943129943332
20
167.148897282970
11
71.668988700416
21
168.187300676293
0
LINE
8
LAYER2
62
2
10
69.394847457499
20
169.225704069617
11
67.120706214583
21
170.264107462941
0
LINE
8
LAYER2
62
2
10
64.846564971666
20
171.302510856264
11
62.572423728750
21
172.340914249588
0
LINE
8
LAYER2
62
2
10
60.298282485833
20
173.379317642912
11
58.024141242917
21
174.417721036236
0
LINE
8
LAYER2
62
2
10
55.750000000000
20
175.456124429559
11
53.475858757083
21
176.494527822883
0
LINE
8
LAYER2
62
2
10
51.201717514167
20
177.532931216207
11
48.927576271250
21
178.571334609530
0
LINE
8
LAYER2
62
2
10
46.653435028334
20
179.609738002854
11
44.379293785417
21
180.648141396178
0
LINE
8
LAYER2
62
2
10
42.105152542501
20
181.686544789501
11
39.831011299584
21
182.724948182825
0
LINE
8
LAYER2
62
2
10
37.556870056668
20
183.763351576149
11
35.282728813751
21
184.801754969473
0
LINE
8
LAYER2
62
2
10
33.008587570835
20
185.840158362796
11
30.734446327918
21
186.878561756120
0
LINE
8
LAYER2
62
2
10
28.460305085002
20
187.916965149444
11
26.186163842085
21
188.955368542767
0
LINE
8
LAYER2
62
2
10
23.912022599169
20
189.993771936091
11
21.637881356252
21
191.032175329415
0
LINE
8
LAYER2
62
2
10
20.194462827995
20
193.889891717072
11
22.468604070911
21
192.851488323748
0
LINE
8
LAYER2
62
2
10
24.742745313828
20
191.813084930424
11
27.016886556744
21
190.774681537101
0
LINE
8
LAYER2
62
2
10
29.291027799661
20
189.736278143777
11
31.565169042577
21
188.697874750453
0
LINE
8
LAYER2
62
2
10
33.839310285494
20
187.659471357129
11
36.113451528410
21
186.621067963806
0
LINE
8
LAYER2
62
2
10
38.387592771327
20
185.582664570482
11
40.661734014243
21
184.544261177158
0
LINE
8
LAYER2
62
2
10
42.935875257160
20
183.505857783835
11
45.210016500076
21
182.467454390511
0
LINE
8
LAYER2
62
2
10
47.484157742993
20
181.429050997187
11
49.758298985909
21
180.390647603863
0
LINE
8
LAYER2
62
2
10
52.032440228826
20
179.352244210540
11
54.306581471742
21
178.313840817216
0
LINE
8
LAYER2
62
2
10
56.580722714659
20
177.275437423892
11
58.854863957575
21
176.237034030569
0
LINE
8
LAYER2
62
2
10
61.129005200492
20
175.198630637245
11
63.403146443409
21
174.160227243921
0
LINE
8
LAYER2
62
2
10
65.677287686325
20
173.121823850598
11
67.951428929242
21
172.083420457274
0
LINE
8
LAYER2
62
2
10
70.225570172158
20
171.045017063950
11
72.499711415075
21
170.006613670626
0
LINE
8
LAYER2
62
2
10
74.773852657991
20
168.968210277303
11
77.047993900907
21
167.929806883979
0
LINE
8
LAYER2
62
2
10
79.322135143824
20
166.891403490655
11
81.596276386740
21
165.853000097332
0
LINE
8
LAYER2
62
2
10
83.870417629657
20
164.814596704008
11
86.144558872573
21
163.776193310684
0
LINE
8
LAYER2
62
2
10
88.418700115490
20
162.737789917360
11
90.692841358406
21
161.699386524037
0
LINE
8
LAYER2
62
2
10
92.966982601323
20
160.660983130713
11
92.136259886664
21
158.841670136380
0
LINE
8
LAYER2
62
2
10
19.363740113336
20
192.070578722738
11
20.194462827995
21
193.889891717072
0
LINE
8
LAYER2
62
2
10
93.502914506544
20
168.702323963402
11
91.774058062429
21
170.508163213071
0
LINE
8
LAYER2
62
2
10
90.045201618315
20
172.314002462740
11
88.316345174200
21
174.119841712408
0
LINE
8
LAYER2
62
2
10
86.587488730086
20
175.925680962077
11
84.858632285972
21
177.731520211746
0
LINE
8
LAYER2
62
2
10
83.129775841857
20
179.537359461415
11
81.400919397743
21
181.343198711084
0
LINE
8
LAYER2
62
2
10
79.672062953629
20
183.149037960752
11
77.943206509514
21
184.954877210421
0
LINE
8
LAYER2
62
2
10
76.214350065400
20
186.760716460090
11
74.485493621286
21
188.566555709759
0
LINE
8
LAYER2
62
2
10
72.756637177171
20
190.372394959427
11
71.027780733057
21
192.178234209096
0
LINE
8
LAYER2
62
2
10
69.298924288943
20
193.984073458765
11
67.570067844828
21
195.789912708434
0
LINE
8
LAYER2
62
2
10
65.841211400714
20
197.595751958102
11
64.112354956599
21
199.401591207771
0
LINE
8
LAYER2
62
2
10
62.383498512485
20
201.207430457440
11
60.654642068371
21
203.013269707109
0
LINE
8
LAYER2
62
2
10
58.925785624256
20
204.819108956777
11
57.196929180142
21
206.624948206446
0
LINE
8
LAYER2
62
2
10
55.468072736028
20
208.430787456115
11
53.739216291913
21
210.236626705784
0
LINE
8
LAYER2
62
2
10
52.010359847799
20
212.042465955453
11
50.281503403685
21
213.848305205121
0
LINE
8
LAYER2
62
2
10
48.552646959570
20
215.654144454790
11
46.823790515456
21
217.459983704459
0
LINE
8
LAYER2
62
2
10
45.094934071342
20
219.265822954128
11
43.366077627227
21
221.071662203796
0
LINE
8
LAYER2
62
2
10
41.637221183113
20
222.877501453465
11
39.908364738998
21
224.683340703134
0
LINE
8
LAYER2
62
2
10
38.179508294884
20
226.489179952803
11
36.450651850770
21
228.295019202471
0
LINE
8
LAYER2
62
2
10
34.721795406655
20
230.100858452140
11
32.992938962541
21
231.906697701809
0
LINE
8
LAYER2
62
2
10
31.264082518427
20
233.712536951478
11
29.535226074312
21
235.518376201146
0
LINE
8
LAYER2
62
2
10
27.806369630198
20
237.324215450815
11
26.077513186084
21
239.130054700484
0
LINE
8
LAYER2
62
2
10
24.348656741969
20
240.935893950153
11
22.619800297855
21
242.741733199822
0
LINE
8
LAYER2
62
2
10
22.335615253476
20
245.930657604782
11
24.064471697590
21
244.124818355113
0
LINE
8
LAYER2
62
2
10
25.793328141704
20
242.318979105444
11
27.522184585819
21
240.513139855776
0
LINE
8
LAYER2
62
2
10
29.251041029933
20
238.707300606107
11
30.979897474047
21
236.901461356438
0
LINE
8
LAYER2
62
2
10
32.708753918162
20
235.095622106769
11
34.437610362276
21
233.289782857101
0
LINE
8
LAYER2
62
2
10
36.166466806391
20
231.483943607432
11
37.895323250505
21
229.678104357763
0
LINE
8
LAYER2
62
2
10
39.624179694619
20
227.872265108094
11
41.353036138734
21
226.066425858426
0
LINE
8
LAYER2
62
2
10
43.081892582848
20
224.260586608757
11
44.810749026962
21
222.454747359088
0
LINE
8
LAYER2
62
2
10
46.539605471077
20
220.648908109419
11
48.268461915191
21
218.843068859751
0
LINE
8
LAYER2
62
2
10
49.997318359305
20
217.037229610082
11
51.726174803420
21
215.231390360413
0
LINE
8
LAYER2
62
2
10
53.455031247534
20
213.425551110744
11
55.183887691648
21
211.619711861076
0
LINE
8
LAYER2
62
2
10
56.912744135763
20
209.813872611407
11
58.641600579877
21
208.008033361738
0
LINE
8
LAYER2
62
2
10
60.370457023992
20
206.202194112069
11
62.099313468106
21
204.396354862400
0
LINE
8
LAYER2
62
2
10
63.828169912220
20
202.590515612732
11
65.557026356335
21
200.784676363063
0
LINE
8
LAYER2
62
2
10
67.285882800449
20
198.978837113394
11
69.014739244563
21
197.172997863725
0
LINE
8
LAYER2
62
2
10
70.743595688678
20
195.367158614057
11
72.472452132792
21
193.561319364388
0
LINE
8
LAYER2
62
2
10
74.201308576906
20
191.755480114719
11
75.930165021021
21
189.949640865050
0
LINE
8
LAYER2
62
2
10
77.659021465135
20
188.143801615382
11
79.387877909249
21
186.337962365713
0
LINE
8
LAYER2
62
2
10
81.116734353364
20
184.532123116044
11
82.845590797478
21
182.726283866375
0
LINE
8
LAYER2
62
2
10
84.574447241593
20
180.920444616707
11
86.303303685707
21
179.114605367038
0
LINE
8
LAYER2
62
2
10
88.032160129821
20
177.308766117369
11
89.761016573936
21
175.502926867700
0
LINE
8
LAYER2
62
2
10
91.489873018050
20
173.697087618031
11
93.218729462164
21
171.891248368363
0
LINE
8
LAYER2
62
2
10
94.947585906279
20
170.085409118694
11
93.502914506544
21
168.702323963402
0
LINE
8
LAYER2
62
2
10
20.890943853741
20
244.547572449491
11
22.335615253476
21
245.930657604782
0
LINE
8
LAYER2
62
2
10
100.944990585690
20
168.688485612585
11
100.226300736731
21
171.082955261798
0
LINE
8
LAYER2
62
2
10
99.507610887773
20
173.477424911011
11
98.788921038815
21
175.871894560225
0
LINE
8
LAYER2
62
2
10
98.070231189857
20
178.266364209438
11
97.351541340899
21
180.660833858652
0
LINE
8
LAYER2
62
2
10
96.632851491940
20
183.055303507865
11
95.914161642982
21
185.449773157079
0
LINE
8
LAYER2
62
2
10
95.195471794024
20
187.844242806292
11
94.476781945066
21
190.238712455506
0
LINE
8
LAYER2
62
2
10
93.758092096108
20
192.633182104719
11
93.039402247149
21
195.027651753933
0
LINE
8
LAYER2
62
2
10
92.320712398191
20
197.422121403146
11
91.602022549233
21
199.816591052359
0
LINE
8
LAYER2
62
2
10
90.883332700275
20
202.211060701573
11
90.164642851317
21
204.605530350786
0
LINE
8
LAYER2
62
2
10
89.445953002358
20
207.000000000000
11
88.727263153400
21
209.394469649213
0
LINE
8
LAYER2
62
2
10
88.008573304442
20
211.788939298427
11
87.289883455484
21
214.183408947640
0
LINE
8
LAYER2
62
2
10
86.571193606526
20
216.577878596854
11
85.852503757567
21
218.972348246067
0
LINE
8
LAYER2
62
2
10
85.133813908609
20
221.366817895280
11
84.415124059651
21
223.761287544494
0
LINE
8
LAYER2
62
2
10
83.696434210693
20
226.155757193707
11
82.977744361734
21
228.550226842921
0
LINE
8
LAYER2
62
2
10
82.259054512776
20
230.944696492134
11
81.540364663818
21
233.339166141348
0
LINE
8
LAYER2
62
2
10
80.821674814860
20
235.733635790561
11
80.102984965902
21
238.128105439775
0
LINE
8
LAYER2
62
2
10
79.384295116943
20
240.522575088988
11
78.665605267985
21
242.917044738201
0
LINE
8
LAYER2
62
2
10
79.862491138398
20
245.886466266582
11
80.581180987356
21
243.491996617368
0
LINE
8
LAYER2
62
2
10
81.299870836314
20
241.097526968155
11
82.018560685273
21
238.703057318942
0
LINE
8
LAYER2
62
2
10
82.737250534231
20
236.308587669728
11
83.455940383189
21
233.914118020515
0
LINE
8
LAYER2
62
2
10
84.174630232147
20
231.519648371301
11
84.893320081105
21
229.125178722088
0
LINE
8
LAYER2
62
2
10
85.612009930064
20
226.730709072874
11
86.330699779022
21
224.336239423661
0
LINE
8
LAYER2
62
2
10
87.049389627980
20
221.941769774447
11
87.768079476938
21
219.547300125234
0
LINE
8
LAYER2
62
2
10
88.486769325896
20
217.152830476021
11
89.205459174855
21
214.758360826807
0
LINE
8
LAYER2
62
2
10
89.924149023813
20
212.363891177594
11
90.642838872771
21
209.969421528380
0
LINE
8
LAYER2
62
2
10
91.361528721729
20
207.574951879167
11
92.080218570688
21
205.180482229953
0
LINE
8
LAYER2
62
2
10
92.798908419646
20
202.786012580740
11
93.517598268604
21
200.391542931526
0
LINE
8
LAYER2
62
2
10
94.236288117562
20
197.997073282313
11
94.954977966520
21
195.602603633100
0
LINE
8
LAYER2
62
2
10
95.673667815479
20
193.208133983886
11
96.392357664437
21
190.813664334673
0
LINE
8
LAYER2
62
2
10
97.111047513395
20
188.419194685459
11
97.829737362353
21
186.024725036246
0
LINE
8
LAYER2
62
2
10
98.548427211311
20
183.630255387032
11
99.267117060270
21
181.235785737819
0
LINE
8
LAYER2
62
2
10
99.985806909228
20
178.841316088605
11
100.704496758186
21
176.446846439392
0
LINE
8
LAYER2
62
2
10
101.423186607144
20
174.052376790178
11
102.141876456102
21
171.657907140965
0
LINE
8
LAYER2
62
2
10
102.860566305060
20
169.263437491751
11
100.944990585690
21
168.688485612585
0
LINE
8
LAYER2
62
2
10
77.946915419027
20
245.311514387415
11
79.862491138398
21
245.886466266582
0
LINE
8
LAYER2
62
2
10
115.000000000000
20
169.500000000000
11
115.000000000000
21
172.000000000000
0
LINE
8
LAYER2
62
2
10
115.000000000000
20
174.500000000000
11
115.000000000000
21
177.000000000000
0
LINE
8
LAYER2
62
2
10
115.000000000000
20
179.500000000000
11
115.000000000000
21
182.000000000000
0
LINE
8
LAYER2
62
2
10
115.000000000000
20
184.500000000000
11
115.000000000000
21
187.000000000000
0
LINE
8
LAYER2
62
2
10
115.000000000000
20
189.500000000000
11
115.000000000000
21
192.000000000000
0
LINE
8
LAYER2
62
2
10
115.000000000000
20
194.500000000000
11
115.000000000000
21
197.000000000000
0
LINE
8
LAYER2
62
2
10
115.000000000000
20
199.500000000000
11
115.000000000000
21
202.000000000000
0
LINE
8
LAYER2
62
2
10
115.000000000000
20
204.500000000000
11
115.000000000000
21
207.000000000000
0
LINE
8
LAYER2
62
2
10
115.000000000000
20
209.500000000000
11
115.000000000000
21
212.000000000000
0
LINE
8
LAYER2
62
2
10
115.000000000000
20
214.500000000000
11
115.000000000000
21
217.000000000000
0
LINE
8
LAYER2
62
2
10
115.000000000000
20
219.500000000000
11
115.000000000000
21
222.000000000000
0
LINE
8
LAYER2
62
2
10
115.000000000000
20
224.500000000000
11
115.000000000000
21
227.000000000000
0
LINE
8
LAYER2
62
2
10
115.000000000000
20
229.500000000000
11
115.000000000000
21
232.000000000000
0
LINE
8
LAYER2
62
2
10
115.000000000000
20
234.500000000000
11
115.000000000000
21
237.000000000000
0
LINE
8
LAYER2
62
2
10
115.000000000000
20
239.500000000000
11
115.000000000000
21
242.000000000000
0
LINE
8
LAYER2
62
2
10
117.000000000000
20
244.500000000000
11
117.000000000000
21
242.000000000000
0
LINE
8
LAYER2
62
2
10
117.000000000000
20
239.500000000000
11
117.000000000000
21
237.000000000000
0
LINE
8
LAYER2
62
2
10
117.000000000000
20
234.500000000000
11
117.000000000000
21
232.000000000000
0
LINE
8
LAYER2
62
2
10
117.000000000000
20
229.500000000000
11
117.000000000000
21
227.000000000000
0
LINE
8
LAYER2
62
2
10
117.000000000000
20
224.500000000000
11
117.000000000000
21
222.000000000000
0
LINE
8
LAYER2
62
2
10
117.000000000000
20
219.500000000000
11
117.000000000000
21
217.000000000000
0
LINE
8
LAYER2
62
2
10
117.000000000000
20
214.500000000000
11
117.000000000000
21
212.000000000000
0
LINE
8
LAYER2
62
2
10
117.000000000000
20
209.500000000000
11
117.000000000000
21
207.000000000000
0
LINE
8
LAYER2
62
2
10
117.000000000000
20
204.500000000000
11
117.000000000000
21
202.000000000000
0
LINE
8
LAYER2
62
2
10
117.000000000000
20
199.500000000000
11
117.000000000000
21
197.000000000000
0
LINE
8
LAYER2
62
2
10
117.000000000000
20
194.500000000000
11
117.000000000000
21
192.000000000000
0
LINE
8
LAYER2
62
2
10
117.000000000000
20
189.500000000000
11
117.000000000000
21
187.000000000000
0
LINE
8
LAYER2
62
2
10
117.000000000000
20
184.500000000000
11
117.000000000000
21
182.000000000000
0
LINE
8
LAYER2
62
2
10
117.000000000000
20
179.500000000000
11
117.000000000000
21
177.000000000000
0
LINE
8
LAYER2
62
2
10
117.000000000000
20
174.500000000000
11
117.000000000000
21
172.000000000000
0
LINE
8
LAYER2
62
2
10
117.000000000000
20
169.500000000000
11
115.000000000000
21
169.500000000000
0
LINE
8
LAYER2
62
2
10
115.000000000000
20
244.500000000000
11
117.000000000000
21
244.500000000000
0
LINE
8
LAYER2
62
2
10
140.000000000000
20
169.500000000000
11
140.000000000000
21
172.000000000000
0
LINE
8
LAYER2
62
2
10
140.000000000000
20
174.500000000000
11
140.000000000000
21
177.000000000000
0
LINE
8
LAYER2
62
2
10
140.000000000000
20
179.500000000000
11
140.000000000000
21
182.000000000000
0
LINE
8
LAYER2
62
2
10
140.000000000000
20
184.500000000000
11
140.000000000000
21
187.000000000000
0
LINE
8
LAYER2
62
2
10
140.000000000000
20
189.500000000000
11
140.000000000000
21
192.000000000000
0
LINE
8
LAYER2
62
2
10
140.000000000000
20
194.500000000000
11
140.000000000000
21
197.000000000000
0
LINE
8
LAYER2
62
2
10
140.000000000000
20
199.500000000000
11
140.000000000000
21
202.000000000000
0
LINE
8
LAYER2
62
2
10
140.000000000000
20
204.500000000000
11
140.000000000000
21
207.000000000000
0
LINE
8
LAYER2
62
2
10
140.000000000000
20
209.500000000000
11
140.000000000000
21
212.000000000000
0
LINE
8
LAYER2
62
2
10
140.000000000000
20
214.500000000000
11
140.000000000000
21
217.000000000000
0
LINE
8
LAYER2
62
2
10
140.000000000000
20
219.500000000000
11
140.000000000000
21
222.000000000000
0
LINE
8
LAYER2
62
2
10
140.000000000000
20
224.500000000000
11
140.000000000000
21
227.000000000000
0
LINE
8
LAYER2
62
2
10
140.000000000000
20
229.500000000000
11
140.000000000000
21
232.000000000000
0
LINE
8
LAYER2
62
2
10
140.000000000000
20
234.500000000000
11
140.000000000000
21
237.000000000000
0
LINE
8
LAYER2
62
2
10
140.000000000000
20
239.500000000000
11
140.000000000000
21
242.000000000000
0
LINE
8
LAYER2
62
2
10
142.000000000000
20
244.500000000000
11
142.000000000000
21
242.000000000000
0
LINE
8
LAYER2
62
2
10
142.000000000000
20
239.500000000000
11
142.000000000000
21
237.000000000000
0
LINE
8
LAYER2
62
2
10
142.000000000000
20
234.500000000000
11
142.000000000000
21
232.000000000000
0
LINE
8
LAYER2
62
2
10
142.000000000000
20
229.500000000000
11
142.000000000000
21
227.000000000000
0
LINE
8
LAYER2
62
2
10
142.000000000000
20
224.500000000000
11
142.000000000000
21
222.000000000000
0
LINE
8
LAYER2
62
2
10
142.000000000000
20
219.500000000000
11
142.000000000000
21
217.000000000000
0
LINE
8
LAYER2
62
2
10
142.000000000000
20
214.500000000000
11
142.000000000000
21
212.000000000000
0
LINE
8
LAYER2
62
2
10
142.000000000000
20
209.500000000000
11
142.000000000000
21
207.000000000000
0
LINE
8
LAYER2
62
2
10
142.000000000000
20
204.500000000000
11
142.000000000000
21
202.000000000000
0
LINE
8
LAYER2
62
2
10
142.000000000000
20
199.500000000000
11
142.000000000000
21
197.000000000000
0
LINE
8
LAYER2
62
2
10
142.000000000000
20
194.500000000000
11
142.000000000000
21
192.000000000000
0
LINE
8
LAYER2
62
2
10
142.000000000000
20
189.500000000000
11
142.000000000000
21
187.000000000000
0
LINE
8
LAYER2
62
2
10
142.000000000000
20
184.500000000000
11
142.000000000000
21
182.000000000000
0
LINE
8
LAYER2
62
2
10
142.000000000000
20
179.500000000000
11
142.000000000000
21
177.000000000000
0
LINE
8
LAYER2
62
2
10
142.000000000000
20
174.500000000000
11
142.000000000000
21
172.000000000000
0
LINE
8
LAYER2
62
2
10
142.000000000000
20
169.500000000000
11
140.000000000000
21
169.500000000000
0
LINE
8
LAYER2
62
2
10
140.000000000000
20
244.500000000000
11
142.000000000000
21
244.500000000000
0
LINE
8
LAYER2
62
2
10
165.000000000000
20
169.500000000000
11
165.000000000000
21
172.000000000000
0
LINE
8
LAYER2
62
2
10
165.000000000000
20
174.500000000000
11
165.000000000000
21
177.000000000000
0
LINE
8
LAYER2
62
2
10
165.000000000000
20
179.500000000000
11
165.000000000000
21
182.000000000000
0
LINE
8
LAYER2
62
2
10
165.000000000000
20
184.500000000000
11
165.000000000000
21
187.000000000000
0
LINE
8
LAYER2
62
2
10
165.000000000000
20
189.500000000000
11
165.000000000000
21
192.000000000000
0
LINE
8
LAYER2
62
2
10
165.000000000000
20
194.500000000000
11
165.000000000000
21
197.000000000000
0
LINE
8
LAYER2
62
2
10
165.000000000000
20
199.500000000000
11
165.000000000000
21
202.000000000000
0
LINE
8
LAYER2
62
2
10
165.000000000000
20
204.500000000000
11
165.000000000000
21
207.000000000000
0
LINE
8
LAYER2
62
2
10
165.000000000000
20
209.500000000000
11
165.000000000000
21
212.000000000000
0
LINE
8
LAYER2
62
2
10
165.000000000000
20
214.500000000000
11
165.000000000000
21
217.000000000000
0
LINE
8
LAYER2
62
2
10
165.000000000000
20
219.500000000000
11
165.000000000000
21
222.000000000000
0
LINE
8
LAYER2
62
2
10
165.000000000000
20
224.500000000000
11
165.000000000000
21
227.000000000000
0
LINE
8
LAYER2
62
2
10
165.000000000000
20
229.500000000000
11
165.000000000000
21
232.000000000000
0
LINE
8
LAYER2
62
2
10
165.000000000000
20
234.500000000000
11
165.000000000000
21
237.000000000000
0
LINE
8
LAYER2
62
2
10
165.000000000000
20
239.500000000000
11
165.000000000000
21
242.000000000000
0
LINE
8
LAYER2
62
2
10
167.000000000000
20
244.500000000000
11
167.000000000000
21
242.000000000000
0
LINE
8
LAYER2
62
2
10
167.000000000000
20
239.500000000000
11
167.000000000000
21
237.000000000000
0
LINE
8
LAYER2
62
2
10
167.000000000000
20
234.500000000000
11
167.000000000000
21
232.000000000000
0
LINE
8
LAYER2
62
2
10
167.000000000000
20
229.500000000000
11
167.000000000000
21
227.000000000000
0
LINE
8
LAYER2
62
2
10
167.000000000000
20
224.500000000000
11
167.000000000000
21
222.000000000000
0
LINE
8
LAYER2
62
2
10
167.000000000000
20
219.500000000000
11
167.000000000000
21
217.000000000000
0
LINE
8
LAYER2
62
2
10
167.000000000000
20
214.500000000000
11
167.000000000000
21
212.000000000000
0
LINE
8
LAYER2
62
2
10
167.000000000000
20
209.500000000000
11
167.000000000000
21
207.000000000000
0
LINE
8
LAYER2
62
2
10
167.000000000000
20
204.500000000000
11
167.000000000000
21
202.000000000000
0
LINE
8
LAYER2
62
2
10
167.000000000000
20
199.500000000000
11
167.000000000000
21
197.000000000000
0
LINE
8
LAYER2
62
2
10
167.000000000000
20
194.500000000000
11
167.000000000000
21
192.000000000000
0
LINE
8
LAYER2
62
2
10
167.000000000000
20
189.500000000000
11
167.000000000000
21
187.000000000000
0
LINE
8
LAYER2
62
2
10
167.000000000000
20
184.500000000000
11
167.000000000000
21
182.000000000000
0
LINE
8
LAYER2
62
2
10
167.000000000000
20
179.500000000000
11
167.000000000000
21
177.000000000000
0
LINE
8
LAYER2
62
2
10
167.000000000000
20
174.500000000000
11
167.000000000000
21
172.000000000000
0
LINE
8
LAYER2
62
2
10
167.000000000000
20
169.500000000000
11
165.000000000000
21
169.500000000000
0
LINE
8
LAYER2
62
2
10
165.000000000000
20
244.500000000000
11
167.000000000000
21
244.500000000000
0
LINE
8
LAYER2
62
2
10
190.000000000000
20
169.500000000000
11
190.000000000000
21
172.000000000000
0
LINE
8
LAYER2
62
2
10
190.000000000000
20
174.500000000000
11
190.000000000000
21
177.000000000000
0
LINE
8
LAYER2
62
2
10
190.000000000000
20
179.500000000000
11
190.000000000000
21
182.000000000000
0
LINE
8
LAYER2
62
2
10
190.000000000000
20
184.500000000000
11
190.000000000000
21
187.000000000000
0
LINE
8
LAYER2
62
2
10
190.000000000000
20
189.500000000000
11
190.000000000000
21
192.000000000000
0
LINE
8
LAYER2
62
2
10
190.000000000000
20
194.500000000000
11
190.000000000000
21
197.000000000000
0
LINE
8
LAYER2
62
2
10
190.000000000000
20
199.500000000000
11
190.000000000000
21
202.000000000000
0
LINE
8
LAYER2
62
2
10
190.000000000000
20
204.500000000000
11
190.000000000000
21
207.000000000000
0
LINE
8
LAYER2
62
2
10
190.000000000000
20
209.500000000000
11
190.000000000000
21
212.000000000000
0
LINE
8
LAYER2
62
2
10
190.000000000000
20
214.500000000000
11
190.000000000000
21
217.000000000000
0
LINE
8
LAYER2
62
2
10
190.000000000000
20
219.500000000000
11
190.000000000000
21
222.000000000000
0
LINE
8
LAYER2
62
2
10
190.000000000000
20
224.500000000000
11
190.000000000000
21
227.000000000000
0
LINE
8
LAYER2
62
2
10
190.000000000000
20
229.500000000000
11
190.000000000000
21
232.000000000000
0
LINE
8
LAYER2
62
2
10
190.000000000000
20
234.500000000000
11
190.000000000000
21
237.000000000000
0
LINE
8
LAYER2
62
2
10
190.000000000000
20
239.500000000000
11
190.000000000000
21
242.000000000000
0
LINE
8
LAYER2
62
2
10
192.000000000000
20
244.500000000000
11
192.000000000000
21
242.000000000000
0
LINE
8
LAYER2
62
2
10
192.000000000000
20
239.500000000000
11
192.000000000000
21
237.000000000000
0
LINE
8
LAYER2
62
2
10
192.000000000000
20
234.500000000000
11
192.000000000000
21
232.000000000000
0
LINE
8
LAYER2
62
2
10
192.000000000000
20
229.500000000000
11
192.000000000000
21
227.000000000000
0
LINE
8
LAYER2
62
2
10
192.000000000000
20
224.500000000000
11
192.000000000000
21
222.000000000000
0
LINE
8
LAYER2
62
2
10
192.000000000000
20
219.500000000000
11
192.000000000000
21
217.000000000000
0
LINE
8
LAYER2
62
2
10
192.000000000000
20
214.500000000000
11
192.000000000000
21
212.000000000000
0
LINE
8
LAYER2
62
2
10
192.000000000000
20
209.500000000000
11
192.000000000000
21
207.000000000000
0
LINE
8
LAYER2
62
2
10
192.000000000000
20
204.500000000000
11
192.000000000000
21
202.000000000000
0
LINE
8
LAYER2
62
2
10
192.000000000000
20
199.500000000000
11
192.000000000000
21
197.000000000000
0
LINE
8
LAYER2
62
2
10
192.000000000000
20
194.500000000000
11
192.000000000000
21
192.000000000000
0
LINE
8
LAYER2
62
2
10
192.000000000000
20
189.500000000000
11
192.000000000000
21
187.000000000000
0
LINE
8
LAYER2
62
2
10
192.000000000000
20
184.500000000000
11
192.000000000000
21
182.000000000000
0
LINE
8
LAYER2
62
2
10
192.000000000000
20
179.500000000000
11
192.000000000000
21
177.000000000000
0
LINE
8
LAYER2
62
2
10
192.000000000000
20
174.500000000000
11
192.000000000000
21
172.000000000000
0
LINE
8
LAYER2
62
2
10
192.000000000000
20
169.500000000000
11
190.000000000000
21
169.500000000000
0
LINE
8
LAYER2
62
2
10
190.000000000000
20
244.500000000000
11
192.000000000000
21
244.500000000000
0
LINE
8
LAYER2
62
2
10
215.000000000000
20
169.500000000000
11
215.000000000000
21
172.000000000000
0
LINE
8
LAYER2
62
2
10
215.000000000000
20
174.500000000000
11
215.000000000000
21
177.000000000000
0
LINE
8
LAYER2
62
2
10
215.000000000000
20
179.500000000000
11
215.000000000000
21
182.000000000000
0
LINE
8
LAYER2
62
2
10
215.000000000000
20
184.500000000000
11
215.000000000000
21
187.000000000000
0
LINE
8
LAYER2
62
2
10
215.000000000000
20
189.500000000000
11
215.000000000000
21
192.000000000000
0
LINE
8
LAYER2
62
2
10
215.000000000000
20
194.500000000000
11
215.000000000000
21
197.000000000000
0
LINE
8
LAYER2
62
2
10
215.000000000000
20
199.500000000000
11
215.000000000000
21
202.000000000000
0
LINE
8
LAYER2
62
2
10
215.000000000000
20
204.500000000000
11
215.000000000000
21
207.000000000000
0
LINE
8
LAYER2
62
2
10
215.000000000000
20
209.500000000000
11
215.000000000000
21
212.000000000000
0
LINE
8
LAYER2
62
2
10
215.000000000000
20
214.500000000000
11
215.000000000000
21
217.000000000000
0
LINE
8
LAYER2
62
2
10
215.000000000000
20
219.500000000000
11
215.000000000000
21
222.000000000000
0
LINE
8
LAYER2
62
2
10
215.000000000000
20
224.500000000000
11
215.000000000000
21
227.000000000000
0
LINE
8
LAYER2
62
2
10
215.000000000000
20
229.500000000000
11
215.000000000000
21
232.000000000000
0
LINE
8
LAYER2
62
2
10
215.000000000000
20
234.500000000000
11
215.000000000000
21
237.000000000000
0
LINE
8
LAYER2
62
2
10
215.000000000000
20
239.500000000000
11
215.000000000000
21
242.000000000000
0
LINE
8
LAYER2
62
2
10
217.000000000000
20
244.500000000000
11
217.000000000000
21
242.000000000000
0
LINE
8
LAYER2
62
2
10
217.000000000000
20
239.500000000000
11
217.000000000000
21
237.000000000000
0
LINE
8
LAYER2
62
2
10
217.000000000000
20
234.500000000000
11
217.000000000000
21
232.000000000000
0
LINE
8
LAYER2
62
2
10
217.000000000000
20
229.500000000000
11
217.000000000000
21
227.000000000000
0
LINE
8
LAYER2
62
2
10
217.000000000000
20
224.500000000000
11
217.000000000000
21
222.000000000000
0
LINE
8
LAYER2
62
2
10
217.000000000000
20
219.500000000000
11
217.000000000000
21
217.000000000000
0
LINE
8
LAYER2
62
2
10
217.000000000000
20
214.500000000000
11
217.000000000000
21
212.000000000000
0
LINE
8
LAYER2
62
2
10
217.000000000000
20
209.500000000000
11
217.000000000000
21
207.000000000000
0
LINE
8
LAYER2
62
2
10
217.000000000000
20
204.500000000000
11
217.000000000000
21
202.000000000000
0
LINE
8
LAYER2
62
2
10
217.000000000000
20
199.500000000000
11
217.000000000000
21
197.000000000000
0
LINE
8
LAYER2
62
2
10
217.000000000000
20
194.500000000000
11
217.000000000000
21
192.000000000000
0
LINE
8
LAYER2
62
2
10
217.000000000000
20
189.500000000000
11
217.000000000000
21
187.000000000000
0
LINE
8
LAYER2
62
2
10
217.000000000000
20
184.500000000000
11
217.000000000000
21
182.000000000000
0
LINE
8
LAYER2
62
2
10
217.000000000000
20
179.500000000000
11
217.000000000000
21
177.000000000000
0
LINE
8
LAYER2
62
2
10
217.000000000000
20
174.500000000000
11
217.000000000000
21
172.000000000000
0
LINE
8
LAYER2
62
2
10
217.000000000000
20
169.500000000000
11
215.000000000000
21
169.500000000000
0
LINE
8
LAYER2
62
2
10
215.000000000000
20
244.500000000000
11
217.000000000000
21
244.500000000000
0
LINE
8
LAYER2
62
2
10
240.000000000000
20
169.500000000000
11
240.000000000000
21
172.000000000000
0
LINE
8
LAYER2
62
2
10
240.000000000000
20
174.500000000000
11
240.000000000000
21
177.000000000000
0
LINE
8
LAYER2
62
2
10
240.000000000000
20
179.500000000000
11
240.000000000000
21
182.000000000000
0
LINE
8
LAYER2
62
2
10
240.000000000000
20
184.500000000000
11
240.000000000000
21
187.000000000000
0
LINE
8
LAYER2
62
2
10
240.000000000000
20
189.500000000000
11
240.000000000000
21
192.000000000000
0
LINE
8
LAYER2
62
2
10
240.000000000000
20
194.500000000000
11
240.000000000000
21
197.000000000000
0
LINE
8
LAYER2
62
2
10
240.000000000000
20
199.500000000000
11
240.000000000000
21
202.000000000000
0
LINE
8
LAYER2
62
2
10
240.000000000000
20
204.500000000000
11
240.000000000000
21
207.000000000000
0
LINE
8
LAYER2
62
2
10
240.000000000000
20
209.500000000000
11
240.000000000000
21
212.000000000000
0
LINE
8
LAYER2
62
2
10
240.000000000000
20
214.500000000000
11
240.000000000000
21
217.000000000000
0
LINE
8
LAYER2
62
2
10
240.000000000000
20
219.500000000000
11
240.000000000000
21
222.000000000000
0
LINE
8
LAYER2
62
2
10
240.000000000000
20
224.500000000000
11
240.000000000000
21
227.000000000000
0
LINE
8
LAYER2
62
2
10
240.000000000000
20
229.500000000000
11
240.000000000000
21
232.000000000000
0
LINE
8
LAYER2
62
2
10
240.000000000000
20
234.500000000000
11
240.000000000000
21
237.000000000000
0
LINE
8
LAYER2
62
2
10
240.000000000000
20
239.500000000000
11
240.000000000000
21
242.000000000000
0
LINE
8
LAYER2
62
2
10
242.000000000000
20
244.500000000000
11
242.000000000000
21
242.000000000000
0
LINE
8
LAYER2
62
2
10
242.000000000000
20
239.500000000000
11
242.000000000000
21
237.000000000000
0
LINE
8
LAYER2
62
2
10
242.000000000000
20
234.500000000000
11
242.000000000000
21
232.000000000000
0
LINE
8
LAYER2
62
2
10
242.000000000000
20
229.500000000000
11
242.000000000000
21
227.000000000000
0
LINE
8
LAYER2
62
2
10
242.000000000000
20
224.500000000000
11
242.000000000000
21
222.000000000000
0
LINE
8
LAYER2
62
2
10
242.000000000000
20
219.500000000000
11
242.000000000000
21
217.000000000000
0
LINE
8
LAYER2
62
2
10
242.000000000000
20
214.500000000000
11
242.000000000000
21
212.000000000000
0
LINE
8
LAYER2
62
2
10
242.000000000000
20
209.500000000000
11
242.000000000000
21
207.000000000000
0
LINE
8
LAYER2
62
2
10
242.000000000000
20
204.500000000000
11
242.000000000000
21
202.000000000000
0
LINE
8
LAYER2
62
2
10
242.000000000000
20
199.500000000000
11
242.000000000000
21
197.000000000000
0
LINE
8
LAYER2
62
2
10
242.000000000000
20
194.500000000000
11
242.000000000000
21
192.000000000000
0
LINE
8
LAYER2
62
2
10
242.000000000000
20
189.500000000000
11
242.000000000000
21
187.000000000000
0
LINE
8
LAYER2
62
2
10
242.000000000000
20
184.500000000000
11
242.000000000000
21
182.000000000000
0
LINE
8
LAYER2
62
2
10
242.000000000000
20
179.500000000000
11
242.000000000000
21
177.000000000000
0
LINE
8
LAYER2
62
2
10
242.000000000000
20
174.500000000000
11
242.000000000000
21
172.000000000000
0
LINE
8
LAYER2
62
2
10
242.000000000000
20
169.500000000000
11
240.000000000000
21
169.500000000000
0
LINE
8
LAYER2
62
2
10
240.000000000000
20
244.500000000000
11
242.000000000000
21
244.500000000000
0
LINE
8
LAYER3
62
3
10
10.500000000000
20
248.500000000000
11
10.500000000000
21
252.500000000000
0
LINE
8
LAYER3
62
3
10
10.500000000000
20
252.500000000000
11
265.000000000000
21
252.500000000000
0
LINE
8
LAYER3
62
3
10
265.000000000000
20
252.500000000000
11
265.000000000000
21
248.500000000000
0
LINE
8
LAYER3
62
3
10
265.000000000000
20
248.500000000000
11
10.500000000000
21
248.500000000000
0
LINE
8
LAYER3
62
3
10
14.500000000000
20
20.000000000000
11
10.500000000000
21
20.000000000000
0
LINE
8
LAYER3
62
3
10
10.500000000000
20
20.000000000000
11
10.500000000000
21
252.500000000000
0
LINE
8
LAYER3
62
3
10
10.500000000000
20
252.500000000000
11
14.500000000000
21
252.500000000000
0
LINE
8
LAYER3
62
3
10
14.500000000000
20
252.500000000000
11
14.500000000000
21
20.000000000000
0
LINE
8
LAYER3
62
3
10
103.500000000000
20
161.500000000000
11
103.500000000000
21
165.500000000000
0
LINE
8
LAYER3
62
3
10
103.500000000000
20
165.500000000000
11
257.000000000000
21
165.500000000000
0
LINE
8
LAYER3
62
3
10
257.000000000000
20
165.500000000000
11
257.000000000000
21
161.500000000000
0
LINE
8
LAYER3
62
3
10
257.000000000000
20
161.500000000000
11
103.500000000000
21
161.500000000000
0
LINE
8
LAYER3
62
3
10
101.500000000000
20
28.000000000000
11
97.500000000000
21
28.000000000000
0
LINE
8
LAYER3
62
3
10
97.500000000000
20
28.000000000000
11
97.500000000000
21
159.500000000000
0
LINE
8
LAYER3
62
3
10
97.500000000000
20
159.500000000000
11
101.500000000000
21
159.500000000000
0
LINE
8
LAYER3
62
3
10
101.500000000000
20
159.500000000000
11
101.500000000000
21
28.000000000000
0
LINE
8
LAYER4
62
4
10
257.000000000000
20
159.500000000000
11
257.000000000000
21
167.500000000000
0
LINE
8
LAYER4
62
4
10
257.000000000000
20
167.500000000000
11
265.000000000000
21
167.500000000000
0
LINE
8
LAYER4
62
4
10
265.000000000000
20
167.500000000000
11
265.000000000000
21
159.500000000000
0
LINE
8
LAYER4
62
4
10
265.000000000000
20
159.500000000000
11
257.000000000000
21
159.500000000000
0
LINE
8
LAYER4
62
4
10
103.500000000000
20
159.500000000000
11
95.500000000000
21
159.500000000000
0
LINE
8
LAYER4
62
4
10
95.500000000000
20
159.500000000000
11
95.500000000000
21
167.500000000000
0
LINE
8
LAYER4
62
4
10
95.500000000000
20
167.500000000000
11
103.500000000000
21
167.500000000000
0
LINE
8
LAYER4
62
4
10
103.500000000000
20
167.500000000000
11
103.500000000000
21
159.500000000000
0
LINE
8
LAYER4
62
4
10
103.500000000000
20
20.000000000000
11
95.500000000000
21
20.000000000000
0
LINE
8
LAYER4
62
4
10
95.500000000000
20
20.000000000000
11
95.500000000000
21
28.000000000000
0
LINE
8
LAYER4
62
4
10
95.500000000000
20
28.000000000000
11
103.500000000000
21
28.000000000000
0
LINE
8
LAYER4
62
4
10
103.500000000000
20
28.000000000000
11
103.500000000000
21
20.000000000000
0
LINE
8
LAYER5
62
5
10
13.500000000000
20
245.000000000000
11
13.500000000000
21
249.000000000000
0
LINE
8
LAYER5
62
5
10
13.500000000000
20
249.000000000000
11
265.000000000000
21
249.000000000000
0
LINE
8
LAYER5
62
5
10
265.000000000000
20
249.000000000000
11
265.000000000000
21
245.000000000000
0
LINE
8
LAYER5
62
5
10
265.000000000000
20
245.000000000000
11
13.500000000000
21
245.000000000000
0
LINE
8
LAYER5
62
5
10
18.000000000000
20
20.000000000000
11
14.000000000000
21
20.000000000000
0
LINE
8
LAYER5
62
5
10
14.000000000000
20
20.000000000000
11
14.000000000000
21
245.000000000000
0
LINE
8
LAYER5
62
5
10
14.000000000000
20
245.000000000000
11
18.000000000000
21
245.000000000000
0
LINE
8
LAYER5
62
5
10
18.000000000000
20
245.000000000000
11
18.000000000000
21
20.000000000000
0
LINE
8
LAYER5
62
5
10
103.500000000000
20
161.500000000000
11
103.500000000000
21
165.500000000000
0
LINE
8
LAYER5
62
5
10
103.500000000000
20
165.500000000000
11
257.000000000000
21
165.500000000000
0
LINE
8
LAYER5
62
5
10
257.000000000000
20
165.500000000000
11
257.000000000000
21
161.500000000000
0
LINE
8
LAYER5
62
5
10
257.000000000000
20
161.500000000000
11
103.500000000000
21
161.500000000000
0
LINE
8
LAYER5
62
5
10
101.500000000000
20
28.000000000000
11
97.500000000000
21
28.000000000000
0
LINE
8
LAYER5
62
5
10
97.500000000000
20
28.000000000000
11
97.500000000000
21
159.500000000000
0
LINE
8
LAYER5
62
5
10
97.500000000000
20
159.500000000000
11
101.500000000000
21
159.500000000000
0
LINE
8
LAYER5
62
5
10
101.500000000000
20
159.500000000000
11
101.500000000000
21
28.000000000000
0
CIRCLE
8
LAYER6
62
6
10
246.165384292603
20
163.500000000000
40
1.149999976158
0
CIRCLE
8
LAYER6
62
6
10
234.180768966675
20
163.500000000000
40
1.149999976158
0
CIRCLE
8
LAYER6
62
6
10
222.196155548096
20
163.500000000000
40
1.149999976158
0
CIRCLE
8
LAYER6
62
6
10
210.211540222168
20
163.500000000000
40
1.149999976158
0
CIRCLE
8
LAYER6
62
6
10
198.226921081543
20
163.500000000000
40
1.149999976158
0
CIRCLE
8
LAYER6
62
6
10
186.242309570312
20
163.500000000000
40
1.149999976158
0
CIRCLE
8
LAYER6
62
6
10
174.257690429688
20
163.500000000000
40
1.149999976158
0
CIRCLE
8
LAYER6
62
6
10
162.273078918457
20
163.500000000000
40
1.149999976158
0
CIRCLE
8
LAYER6
62
6
10
150.288459777832
20
163.500000000000
40
1.149999976158
0
CIRCLE
8
LAYER6
62
6
10
138.303848266602
20
163.500000000000
40
1.149999976158
0
CIRCLE
8
LAYER6
62
6
10
126.319229125977
20
163.500000000000
40
1.149999976158
0
CIRCLE
8
LAYER6
62
6
10
114.334609985352
20
163.500000000000
40
1.149999976158
0
CIRCLE
8
LAYER6
62
6
10
99.500000000000
20
149.500000000000
40
1.149999976158
0
CIRCLE
8
LAYER6
62
6
10
99.500000000000
20
138.349998474121
40
1.149999976158
0
CIRCLE
8
LAYER6
62
6
10
99.500000000000
20
127.200004577637
40
1.149999976158
0
CIRCLE
8
LAYER6
62
6
10
99.500000000000
20
116.050003051758
40
1.149999976158
0
CIRCLE
8
LAYER6
62
6
10
99.500000000000
20
104.900009155273
40
1.149999976158
0
CIRCLE
8
LAYER6
62
6
10
99.500000000000
20
93.750000000000
40
1.149999976158
0
CIRCLE
8
LAYER6
62
6
10
99.500000000000
20
82.600006103516
40
1.149999976158
0
CIRCLE
8
LAYER6
62
6
10
99.500000000000
20
71.449996948242
40
1.149999976158
0
CIRCLE
8
LAYER6
62
6
10
99.500000000000
20
60.300003051758
40
1.149999976158
0
CIRCLE
8
LAYER6
62
6
10
99.500000000000
20
49.150009155273
40
1.149999976158
0
CIRCLE
8
LAYER6
62
6
10
99.500000000000
20
38.000000000000
40
1.149999976158
0
LINE
8
LAYER7
62
7
10
265.000000000000
20
253.000000000000
11
265.000000000000
21
63.000000000000
0
LINE
8
LAYER7
62
7
10
265.000000000000
20
63.000000000000
11
10.000000000000
21
63.000000000000
0
LINE
8
LAYER7
62
7
10
10.000000000000
20
63.000000000000
11
10.000000000000
21
253.000000000000
0
LINE
8
LAYER7
62
7
10
10.000000000000
20
253.000000000000
11
265.000000000000
21
253.000000000000
0
LINE
8
LAYER9
62
8
10
58.286437988281
20
21.000000000000
11
58.286437988281
21
179.713562011719
0
ARC
8
LAYER9
62
8
10
83.286437988281
20
179.713562011719
40
25.000000000000
50
90.000000000000
51
180.000000000000
0
LINE
8
LAYER9
62
8
10
83.286437988281
20
204.713562011719
11
265.000000000000
21
204.713562011719
0
LINE
8
LAYER14
62
8
10
43.511437988281
20
36.400004632448
11
43.848937988281
21
37.000004632448
0
LINE
8
LAYER14
62
8
10
43.848937988281
20
37.000004632448
11
43.848937988281
21
35.000004632448
0
LINE
8
LAYER14
62
8
10
43.623937988281
20
35.000004632448
11
44.073937988281
21
35.000004632448
0
LINE
8
LAYER14
62
8
10
43.286437988281
20
61.700004632448
11
43.455187988281
21
62.000004632448
0
LINE
8
LAYER14
62
8
10
43.455187988281
20
62.000004632448
11
44.242687988281
21
62.000004632448
0
LINE
8
LAYER14
62
8
10
44.242687988281
20
62.000004632448
11
44.411437988281
21
61.700004632448
0
LINE
8
LAYER14
62
8
10
44.411437988281
20
61.700004632448
11
44.411437988281
21
61.400004632448
0
LINE
8
LAYER14
62
8
10
44.411437988281
20
61.400004632448
11
43.286437988281
21
60.300004632448
0
LINE
8
LAYER14
62
8
10
43.286437988281
20
60.300004632448
11
43.286437988281
21
60.000004632448
0
LINE
8
LAYER14
62
8
10
43.286437988281
20
60.000004632448
11
44.411437988281
21
60.000004632448
0
LINE
8
LAYER14
62
8
10
44.411437988281
20
60.000004632448
11
44.411437988281
21
60.300004632448
0
LINE
8
LAYER14
62
8
10
43.286437988281
20
86.800004632448
11
43.398937988281
21
87.000004632448
0
LINE
8
LAYER14
62
8
10
43.398937988281
20
87.000004632448
11
44.298937988281
21
87.000004632448
0
LINE
8
LAYER14
62
8
10
44.298937988281
20
87.000004632448
11
44.411437988281
21
86.800004632448
0
LINE
8
LAYER14
62
8
10
44.411437988281
20
86.800004632448
11
44.411437988281
21
86.400004632448
0
LINE
8
LAYER14
62
8
10
44.411437988281
20
86.400004632448
11
44.298937988281
21
86.200004632448
0
LINE
8
LAYER14
62
8
10
44.298937988281
20
86.200004632448
11
43.623937988281
21
86.200004632448
0
LINE
8
LAYER14
62
8
10
44.298937988281
20
86.200004632448
11
44.411437988281
21
86.000004632448
0
LINE
8
LAYER14
62
8
10
44.411437988281
20
86.000004632448
11
44.411437988281
21
85.200004632448
0
LINE
8
LAYER14
62
8
10
44.411437988281
20
85.200004632448
11
44.298937988281
21
85.000004632448
0
LINE
8
LAYER14
62
8
10
44.298937988281
20
85.000004632448
11
43.398937988281
21
85.000004632448
0
LINE
8
LAYER14
62
8
10
43.398937988281
20
85.000004632448
11
43.286437988281
21
85.200004632448
0
LINE
8
LAYER14
62
8
10
43.286437988281
20
112.000004632448
11
43.286437988281
21
111.200004632448
0
LINE
8
LAYER14
62
8
10
43.286437988281
20
111.200004632448
11
44.411437988281
21
111.200004632448
0
LINE
8
LAYER14
62
8
10
44.411437988281
20
112.000004632448
11
44.411437988281
21
110.000004632448
0
LINE
8
LAYER14
62
8
10
44.411437988281
20
137.000004632448
11
43.286437988281
21
137.000004632448
0
LINE
8
LAYER14
62
8
10
43.286437988281
20
137.000004632448
11
43.286437988281
21
136.200004632448
0
LINE
8
LAYER14
62
8
10
43.286437988281
20
136.200004632448
11
44.242687988281
21
136.200004632448
0
LINE
8
LAYER14
62
8
10
44.242687988281
20
136.200004632448
11
44.411437988281
21
135.900004632448
0
LINE
8
LAYER14
62
8
10
44.411437988281
20
135.900004632448
11
44.411437988281
21
135.300004632448
0
LINE
8
LAYER14
62
8
10
44.411437988281
20
135.300004632448
11
44.242687988281
21
135.000004632448
0
LINE
8
LAYER14
62
8
10
44.242687988281
20
135.000004632448
11
43.455187988281
21
135.000004632448
0
LINE
8
LAYER14
62
8
10
43.455187988281
20
135.000004632448
11
43.286437988281
21
135.300004632448
0
LINE
8
LAYER14
62
8
10
44.411437988281
20
162.148978728354
11
44.242687988281
21
162.148978728354
0
LINE
8
LAYER14
62
8
10
44.242687988281
20
162.148978728354
11
43.286437988281
21
161.648978728354
0
LINE
8
LAYER14
62
8
10
43.286437988281
20
161.648978728354
11
43.286437988281
21
160.448978728354
0
LINE
8
LAYER14
62
8
10
43.286437988281
20
160.448978728354
11
43.455187988281
21
160.148978728354
0
LINE
8
LAYER14
62
8
10
43.455187988281
20
160.148978728354
11
44.242687988281
21
160.148978728354
0
LINE
8
LAYER14
62
8
10
44.242687988281
20
160.148978728354
11
44.411437988281
21
160.448978728354
0
LINE
8
LAYER14
62
8
10
44.411437988281
20
160.448978728354
11
44.411437988281
21
161.048978728354
0
LINE
8
LAYER14
62
8
10
44.411437988281
20
161.048978728354
11
44.242687988281
21
161.348978728354
0
LINE
8
LAYER14
62
8
10
44.242687988281
20
161.348978728354
11
43.286437988281
21
161.348978728354
0
LINE
8
LAYER14
62
8
10
44.291244798332
20
190.322821693565
11
44.291244798332
21
190.622821693565
0
LINE
8
LAYER14
62
8
10
44.291244798332
20
190.622821693565
11
45.416244798332
21
190.622821693565
0
LINE
8
LAYER14
62
8
10
45.416244798332
20
190.622821693565
11
45.416244798332
21
189.922821693565
0
LINE
8
LAYER14
62
8
10
45.416244798332
20
189.922821693565
11
44.853744798332
21
189.422821693565
0
LINE
8
LAYER14
62
8
10
44.853744798332
20
189.422821693565
11
44.853744798332
21
188.622821693565
0
LINE
8
LAYER14
62
8
10
71.261305753205
20
217.809614773614
11
71.092555753205
21
218.109614773614
0
LINE
8
LAYER14
62
8
10
71.092555753205
20
218.109614773614
11
71.092555753205
21
218.509614773614
0
LINE
8
LAYER14
62
8
10
71.092555753205
20
218.509614773614
11
71.261305753205
21
218.809614773614
0
LINE
8
LAYER14
62
8
10
71.261305753205
20
218.809614773614
11
72.048805753205
21
218.809614773614
0
LINE
8
LAYER14
62
8
10
72.048805753205
20
218.809614773614
11
72.217555753205
21
218.509614773614
0
LINE
8
LAYER14
62
8
10
72.217555753205
20
218.509614773614
11
72.217555753205
21
218.109614773614
0
LINE
8
LAYER14
62
8
10
72.217555753205
20
218.109614773614
11
72.048805753205
21
217.809614773614
0
LINE
8
LAYER14
62
8
10
72.048805753205
20
217.809614773614
11
71.261305753205
21
217.809614773614
0
LINE
8
LAYER14
62
8
10
71.261305753205
20
218.809614773614
11
71.092555753205
21
219.109614773614
0
LINE
8
LAYER14
62
8
10
71.092555753205
20
219.109614773614
11
71.092555753205
21
219.509614773614
0
LINE
8
LAYER14
62
8
10
71.092555753205
20
219.509614773614
11
71.261305753205
21
219.809614773614
0
LINE
8
LAYER14
62
8
10
71.261305753205
20
219.809614773614
11
72.048805753205
21
219.809614773614
0
LINE
8
LAYER14
62
8
10
72.048805753205
20
219.809614773614
11
72.217555753205
21
219.509614773614
0
LINE
8
LAYER14
62
8
10
72.217555753205
20
219.509614773614
11
72.217555753205
21
219.109614773614
0
LINE
8
LAYER14
62
8
10
72.217555753205
20
219.109614773614
11
72.048805753205
21
218.809614773614
0
LINE
8
LAYER14
62
8
10
101.000000000000
20
220.013562011719
11
101.168750000000
21
219.713562011719
0
LINE
8
LAYER14
62
8
10
101.168750000000
20
219.713562011719
11
101.956250000000
21
219.713562011719
0
LINE
8
LAYER14
62
8
10
101.956250000000
20
219.713562011719
11
102.125000000000
21
220.013562011719
0
LINE
8
LAYER14
62
8
10
102.125000000000
20
220.013562011719
11
102.125000000000
21
221.413562011719
0
LINE
8
LAYER14
62
8
10
102.125000000000
20
221.413562011719
11
101.956250000000
21
221.713562011719
0
LINE
8
LAYER14
62
8
10
101.956250000000
20
221.713562011719
11
101.168750000000
21
221.713562011719
0
LINE
8
LAYER14
62
8
10
101.168750000000
20
221.713562011719
11
101.000000000000
21
221.413562011719
0
LINE
8
LAYER14
62
8
10
101.000000000000
20
221.413562011719
11
101.000000000000
21
221.013562011719
0
LINE
8
LAYER14
62
8
10
101.000000000000
20
221.013562011719
11
101.168750000000
21
220.713562011719
0
LINE
8
LAYER14
62
8
10
101.168750000000
20
220.713562011719
11
102.125000000000
21
220.713562011719
0
LINE
8
LAYER14
62
8
10
126.225000000000
20
221.113562011719
11
126.562500000000
21
221.713562011719
0
LINE
8
LAYER14
62
8
10
126.562500000000
20
221.713562011719
11
126.562500000000
21
219.713562011719
0
LINE
8
LAYER14
62
8
10
126.337500000000
20
219.713562011719
11
126.787500000000
21
219.713562011719
0
LINE
8
LAYER14
62
8
10
127.781250000000
20
219.713562011719
11
128.343750000000
21
219.713562011719
0
LINE
8
LAYER14
62
8
10
128.343750000000
20
219.713562011719
11
128.625000000000
21
220.213562011719
0
LINE
8
LAYER14
62
8
10
128.625000000000
20
220.213562011719
11
128.625000000000
21
221.213562011719
0
LINE
8
LAYER14
62
8
10
128.625000000000
20
221.213562011719
11
128.343750000000
21
221.713562011719
0
LINE
8
LAYER14
62
8
10
128.343750000000
20
221.713562011719
11
127.781250000000
21
221.713562011719
0
LINE
8
LAYER14
62
8
10
127.781250000000
20
221.713562011719
11
127.500000000000
21
221.213562011719
0
LINE
8
LAYER14
62
8
10
127.500000000000
20
221.213562011719
11
127.500000000000
21
220.213562011719
0
LINE
8
LAYER14
62
8
10
127.500000000000
20
220.213562011719
11
127.781250000000
21
219.713562011719
0
LINE
8
LAYER14
62
8
10
151.225000000000
20
221.113562011719
11
151.562500000000
21
221.713562011719
0
LINE
8
LAYER14
62
8
10
151.562500000000
20
221.713562011719
11
151.562500000000
21
219.713562011719
0
LINE
8
LAYER14
62
8
10
151.337500000000
20
219.713562011719
11
151.787500000000
21
219.713562011719
0
LINE
8
LAYER14
62
8
10
152.725000000000
20
221.113562011719
11
153.062500000000
21
221.713562011719
0
LINE
8
LAYER14
62
8
10
153.062500000000
20
221.713562011719
11
153.062500000000
21
219.713562011719
0
LINE
8
LAYER14
62
8
10
152.837500000000
20
219.713562011719
11
153.287500000000
21
219.713562011719
0
LINE
8
LAYER14
62
8
10
176.225000000000
20
221.113562011719
11
176.562500000000
21
221.713562011719
0
LINE
8
LAYER14
62
8
10
176.562500000000
20
221.713562011719
11
176.562500000000
21
219.713562011719
0
LINE
8
LAYER14
62
8
10
176.337500000000
20
219.713562011719
11
176.787500000000
21
219.713562011719
0
LINE
8
LAYER14
62
8
10
177.500000000000
20
221.413562011719
11
177.668750000000
21
221.713562011719
0
LINE
8
LAYER14
62
8
10
177.668750000000
20
221.713562011719
11
178.456250000000
21
221.713562011719
0
LINE
8
LAYER14
62
8
10
178.456250000000
20
221.713562011719
11
178.625000000000
21
221.413562011719
0
LINE
8
LAYER14
62
8
10
178.625000000000
20
221.413562011719
11
178.625000000000
21
221.113562011719
0
LINE
8
LAYER14
62
8
10
178.625000000000
20
221.113562011719
11
177.500000000000
21
220.013562011719
0
LINE
8
LAYER14
62
8
10
177.500000000000
20
220.013562011719
11
177.500000000000
21
219.713562011719
0
LINE
8
LAYER14
62
8
10
177.500000000000
20
219.713562011719
11
178.625000000000
21
219.713562011719
0
LINE
8
LAYER14
62
8
10
178.625000000000
20
219.713562011719
11
178.625000000000
21
220.013562011719
0
LINE
8
LAYER14
62
8
10
201.225000000000
20
221.113562011719
11
201.562500000000
21
221.713562011719
0
LINE
8
LAYER14
62
8
10
201.562500000000
20
221.713562011719
11
201.562500000000
21
219.713562011719
0
LINE
8
LAYER14
62
8
10
201.337500000000
20
219.713562011719
11
201.787500000000
21
219.713562011719
0
LINE
8
LAYER14
62
8
10
202.500000000000
20
221.513562011719
11
202.612500000000
21
221.713562011719
0
LINE
8
LAYER14
62
8
10
202.612500000000
20
221.713562011719
11
203.512500000000
21
221.713562011719
0
LINE
8
LAYER14
62
8
10
203.512500000000
20
221.713562011719
11
203.625000000000
21
221.513562011719
0
LINE
8
LAYER14
62
8
10
203.625000000000
20
221.513562011719
11
203.625000000000
21
221.113562011719
0
LINE
8
LAYER14
62
8
10
203.625000000000
20
221.113562011719
11
203.512500000000
21
220.913562011719
0
LINE
8
LAYER14
62
8
10
203.512500000000
20
220.913562011719
11
202.837500000000
21
220.913562011719
0
LINE
8
LAYER14
62
8
10
203.512500000000
20
220.913562011719
11
203.625000000000
21
220.713562011719
0
LINE
8
LAYER14
62
8
10
203.625000000000
20
220.713562011719
11
203.625000000000
21
219.913562011719
0
LINE
8
LAYER14
62
8
10
203.625000000000
20
219.913562011719
11
203.512500000000
21
219.713562011719
0
LINE
8
LAYER14
62
8
10
203.512500000000
20
219.713562011719
11
202.612500000000
21
219.713562011719
0
LINE
8
LAYER14
62
8
10
202.612500000000
20
219.713562011719
11
202.500000000000
21
219.913562011719
0
LINE
8
LAYER14
62
8
10
226.225000000000
20
221.113562011719
11
226.562500000000
21
221.713562011719
0
LINE
8
LAYER14
62
8
10
226.562500000000
20
221.713562011719
11
226.562500000000
21
219.713562011719
0
LINE
8
LAYER14
62
8
10
226.337500000000
20
219.713562011719
11
226.787500000000
21
219.713562011719
0
LINE
8
LAYER14
62
8
10
227.500000000000
20
221.713562011719
11
227.500000000000
21
220.913562011719
0
LINE
8
LAYER14
62
8
10
227.500000000000
20
220.913562011719
11
228.625000000000
21
220.913562011719
0
LINE
8
LAYER14
62
8
10
228.625000000000
20
221.713562011719
11
228.625000000000
21
219.713562011719
0
LINE
8
LAYER14
62
8
10
251.225000000000
20
221.113562011719
11
251.562500000000
21
221.713562011719
0
LINE
8
LAYER14
62
8
10
251.562500000000
20
221.713562011719
11
251.562500000000
21
219.713562011719
0
LINE
8
LAYER14
62
8
10
251.337500000000
20
219.713562011719
11
251.787500000000
21
219.713562011719
0
LINE
8
LAYER14
62
8
10
253.625000000000
20
221.713562011719
11
252.500000000000
21
221.713562011719
0
LINE
8
LAYER14
62
8
10
252.500000000000
20
221.713562011719
11
252.500000000000
21
220.913562011719
0
LINE
8
LAYER14
62
8
10
252.500000000000
20
220.913562011719
11
253.456250000000
21
220.913562011719
0
LINE
8
LAYER14
62
8
10
253.456250000000
20
220.913562011719
11
253.625000000000
21
220.613562011719
0
LINE
8
LAYER14
62
8
10
253.625000000000
20
220.613562011719
11
253.625000000000
21
220.013562011719
0
LINE
8
LAYER14
62
8
10
253.625000000000
20
220.013562011719
11
253.456250000000
21
219.713562011719
0
LINE
8
LAYER14
62
8
10
253.456250000000
20
219.713562011719
11
252.668750000000
21
219.713562011719
0
LINE
8
LAYER14
62
8
10
252.668750000000
20
219.713562011719
11
252.500000000000
21
220.013562011719
0
LINE
8
LAYER15
62
8
10
10.000000000000
20
0.000000000000
11
10.000000000000
21
253.000000000000
0
LINE
8
LAYER15
62
8
10
10.000000000000
20
253.000000000000
11
0.000000000000
21
263.000000000000
0
LINE
8
LAYER15
62
8
10
0.000000000000
20
263.000000000000
11
0.000000000000
21
0.000000000000
0
LINE
8
LAYER15
62
8
10
0.000000000000
20
0.000000000000
11
10.000000000000
21
0.000000000000
0
LINE
8
LAYER15
62
8
10
10.000000000000
20
253.000000000000
11
265.000000000000
21
253.000000000000
0
LINE
8
LAYER15
62
8
10
265.000000000000
20
253.000000000000
11
265.000000000000
21
263.000000000000
0
LINE
8
LAYER15
62
8
10
265.000000000000
20
263.000000000000
11
0.000000000000
21
263.000000000000
0
LINE
8
LAYER15
62
8
10
0.000000000000
20
263.000000000000
11
10.000000000000
21
253.000000000000
0
ENDSEC
0
EOF
