0
SECTION
2
HEADER
0
ENDSEC
0
SECTION
2
TABLES
0
TABLE
2
LTYPE
70
1
0
LTYPE
2
CONTINUOUS
70
64
3
Solid line
72
65
73
0
40
0
0
ENDTAB
0
TABLE
2
LAYER
70
20
0
LAYER
2
COMPASS
70
0
62
1
6
CONTINUOUS
0
LAYER
2
LAYER1
70
0
62
1
6
CONTINUOUS
0
LAYER
2
LAYER2
70
0
62
1
6
CONTINUOUS
0
LAYER
2
LAYER3
70
0
62
1
6
CONTINUOUS
0
LAYER
2
LAYER4
70
0
62
1
6
CONTINUOUS
0
LAYER
2
LAYER5
70
0
62
1
6
CONTINUOUS
0
LAYER
2
LAYER6
70
0
62
1
6
CONTINUOUS
0
LAYER
2
LAYER7
70
0
62
1
6
CONTINUOUS
0
LAYER
2
LAYER8
70
0
62
1
6
CONTINUOUS
0
LAYER
2
LAYER9
70
0
62
1
6
CONTINUOUS
0
LAYER
2
LAYER10
70
0
62
1
6
CONTINUOUS
0
LAYER
2
LAYER11
70
0
62
1
6
CONTINUOUS
0
LAYER
2
LAYER12
70
0
62
1
6
CONTINUOUS
0
LAYER
2
LAYER13
70
0
62
1
6
CONTINUOUS
0
LAYER
2
LAYER14
70
0
62
1
6
CONTINUOUS
0
LAYER
2
LAYER15
70
0
62
1
6
CONTINUOUS
0
LAYER
2
LAYER16
70
0
62
1
6
CONTINUOUS
0
LAYER
2
LAYER17
70
0
62
1
6
CONTINUOUS
0
LAYER
2
LAYER18
70
0
62
1
6
CONTINUOUS
0
LAYER
2
LAYER19
70
0
62
1
6
CONTINUOUS
0
ENDTAB
0
ENDSEC
0
SECTION
2
BLOCKS
0
ENDSEC
0
SECTION
2
ENTITIES
0
LINE
8
LAYER1
62
1
10
95.500000000000
20
21.000004632448
11
14.500000000000
21
21.000004632448
0
LINE
8
LAYER1
62
1
10
97.500000000000
20
49.000004632448
11
97.500000000000
21
28.000004632448
0
LINE
8
LAYER1
62
1
10
97.500000000000
20
28.000004632448
11
95.500000000000
21
28.000004632448
0
LINE
8
LAYER1
62
1
10
95.500000000000
20
28.000004632448
11
95.500000000000
21
21.000004632448
0
LINE
8
LAYER1
62
1
10
14.500000000000
20
21.000004632448
11
14.500000000000
21
49.000004632448
0
LINE
8
LAYER1
62
1
10
14.500000000000
20
49.000004632448
11
97.500000000000
21
49.000004632448
0
LINE
8
LAYER1
62
1
10
97.500000000000
20
46.000004632448
11
14.500000000000
21
46.000004632448
0
LINE
8
LAYER1
62
1
10
97.500000000000
20
74.000004632448
11
97.500000000000
21
46.000004632448
0
LINE
8
LAYER1
62
1
10
14.500000000000
20
46.000004632448
11
14.500000000000
21
74.000004632448
0
LINE
8
LAYER1
62
1
10
14.500000000000
20
74.000004632448
11
97.500000000000
21
74.000004632448
0
LINE
8
LAYER1
62
1
10
97.500000000000
20
71.000004632448
11
14.500000000000
21
71.000004632448
0
LINE
8
LAYER1
62
1
10
97.500000000000
20
99.000004632448
11
97.500000000000
21
71.000004632448
0
LINE
8
LAYER1
62
1
10
14.500000000000
20
71.000004632448
11
14.500000000000
21
99.000004632448
0
LINE
8
LAYER1
62
1
10
14.500000000000
20
99.000004632448
11
97.500000000000
21
99.000004632448
0
LINE
8
LAYER1
62
1
10
97.500000000000
20
96.000004632448
11
14.500000000000
21
96.000004632448
0
LINE
8
LAYER1
62
1
10
97.500000000000
20
124.000004632448
11
97.500000000000
21
96.000004632448
0
LINE
8
LAYER1
62
1
10
14.500000000000
20
96.000004632448
11
14.500000000000
21
124.000004632448
0
LINE
8
LAYER1
62
1
10
14.500000000000
20
124.000004632448
11
97.500000000000
21
124.000004632448
0
LINE
8
LAYER1
62
1
10
97.500000000000
20
121.000004632448
11
14.500000000000
21
121.000004632448
0
LINE
8
LAYER1
62
1
10
97.500000000000
20
149.000004632448
11
97.500000000000
21
121.000004632448
0
LINE
8
LAYER1
62
1
10
14.500000000000
20
121.000004632448
11
14.500000000000
21
149.000004632448
0
LINE
8
LAYER1
62
1
10
14.500000000000
20
149.000004632448
11
97.500000000000
21
149.000004632448
0
LINE
8
LAYER1
62
1
10
97.500000000000
20
146.000004632448
11
14.500000000000
21
146.000004632448
0
LINE
8
LAYER1
62
1
10
97.500000000000
20
156.349021497920
11
97.500000000000
21
146.000004632448
0
LINE
8
LAYER1
62
1
10
14.500000000000
20
146.000004632448
11
14.500000000000
21
194.343017127026
0
LINE
8
LAYER1
62
1
10
14.500000000000
20
194.343017127026
11
97.500000000000
21
156.349021497920
0
LINE
8
LAYER1
62
1
10
97.500000000000
20
153.049644347209
11
14.500000000000
21
191.043639976314
0
LINE
8
LAYER1
62
1
10
95.500000000000
20
166.537582925421
11
95.500000000000
21
159.500000000000
0
LINE
8
LAYER1
62
1
10
95.500000000000
20
159.500000000000
11
97.500000000000
21
159.500000000000
0
LINE
8
LAYER1
62
1
10
97.500000000000
20
159.500000000000
11
97.500000000000
21
153.049644347209
0
LINE
8
LAYER1
62
1
10
14.500000000000
20
191.043639976314
11
14.500000000000
21
248.500000000000
0
LINE
8
LAYER1
62
1
10
14.500000000000
20
248.500000000000
11
17.231441408504
21
248.500000000000
0
LINE
8
LAYER1
62
1
10
17.231441408504
20
248.500000000000
11
95.500000000000
21
166.537582925421
0
LINE
8
LAYER1
62
1
10
95.500000000000
20
162.193673394021
11
14.500000000000
21
247.016441342149
0
LINE
8
LAYER1
62
1
10
101.752465753000
20
167.500000000000
11
95.500000000000
21
167.500000000000
0
LINE
8
LAYER1
62
1
10
95.500000000000
20
167.500000000000
11
95.500000000000
21
162.193673394021
0
LINE
8
LAYER1
62
1
10
14.500000000000
20
247.016441342149
11
14.500000000000
21
248.500000000000
0
LINE
8
LAYER1
62
1
10
14.500000000000
20
248.500000000000
11
76.482147623339
21
248.500000000000
0
LINE
8
LAYER1
62
1
10
76.482147623339
20
248.500000000000
11
101.752465753000
21
167.500000000000
0
LINE
8
LAYER1
62
1
10
98.609858651531
20
167.500000000000
11
73.339540521870
21
248.500000000000
0
LINE
8
LAYER1
62
1
10
115.000000000000
20
165.500000000000
11
103.500000000000
21
165.500000000000
0
LINE
8
LAYER1
62
1
10
103.500000000000
20
165.500000000000
11
103.500000000000
21
167.500000000000
0
LINE
8
LAYER1
62
1
10
103.500000000000
20
167.500000000000
11
98.609858651531
21
167.500000000000
0
LINE
8
LAYER1
62
1
10
73.339540521870
20
248.500000000000
11
115.000000000000
21
248.500000000000
0
LINE
8
LAYER1
62
1
10
115.000000000000
20
248.500000000000
11
115.000000000000
21
165.500000000000
0
LINE
8
LAYER1
62
1
10
112.000000000000
20
165.500000000000
11
112.000000000000
21
248.500000000000
0
LINE
8
LAYER1
62
1
10
140.000000000000
20
165.500000000000
11
112.000000000000
21
165.500000000000
0
LINE
8
LAYER1
62
1
10
112.000000000000
20
248.500000000000
11
140.000000000000
21
248.500000000000
0
LINE
8
LAYER1
62
1
10
140.000000000000
20
248.500000000000
11
140.000000000000
21
165.500000000000
0
LINE
8
LAYER1
62
1
10
137.000000000000
20
165.500000000000
11
137.000000000000
21
248.500000000000
0
LINE
8
LAYER1
62
1
10
165.000000000000
20
165.500000000000
11
137.000000000000
21
165.500000000000
0
LINE
8
LAYER1
62
1
10
137.000000000000
20
248.500000000000
11
165.000000000000
21
248.500000000000
0
LINE
8
LAYER1
62
1
10
165.000000000000
20
248.500000000000
11
165.000000000000
21
165.500000000000
0
LINE
8
LAYER1
62
1
10
162.000000000000
20
165.500000000000
11
162.000000000000
21
248.500000000000
0
LINE
8
LAYER1
62
1
10
190.000000000000
20
165.500000000000
11
162.000000000000
21
165.500000000000
0
LINE
8
LAYER1
62
1
10
162.000000000000
20
248.500000000000
11
190.000000000000
21
248.500000000000
0
LINE
8
LAYER1
62
1
10
190.000000000000
20
248.500000000000
11
190.000000000000
21
165.500000000000
0
LINE
8
LAYER1
62
1
10
187.000000000000
20
165.500000000000
11
187.000000000000
21
248.500000000000
0
LINE
8
LAYER1
62
1
10
215.000000000000
20
165.500000000000
11
187.000000000000
21
165.500000000000
0
LINE
8
LAYER1
62
1
10
187.000000000000
20
248.500000000000
11
215.000000000000
21
248.500000000000
0
LINE
8
LAYER1
62
1
10
215.000000000000
20
248.500000000000
11
215.000000000000
21
165.500000000000
0
LINE
8
LAYER1
62
1
10
212.000000000000
20
165.500000000000
11
212.000000000000
21
248.500000000000
0
LINE
8
LAYER1
62
1
10
240.000000000000
20
165.500000000000
11
212.000000000000
21
165.500000000000
0
LINE
8
LAYER1
62
1
10
212.000000000000
20
248.500000000000
11
240.000000000000
21
248.500000000000
0
LINE
8
LAYER1
62
1
10
240.000000000000
20
248.500000000000
11
240.000000000000
21
165.500000000000
0
LINE
8
LAYER1
62
1
10
237.000000000000
20
165.500000000000
11
237.000000000000
21
248.500000000000
0
LINE
8
LAYER1
62
1
10
265.000000000000
20
167.500000000000
11
257.000000000000
21
167.500000000000
0
LINE
8
LAYER1
62
1
10
257.000000000000
20
167.500000000000
11
257.000000000000
21
165.500000000000
0
LINE
8
LAYER1
62
1
10
257.000000000000
20
165.500000000000
11
237.000000000000
21
165.500000000000
0
LINE
8
LAYER1
62
1
10
237.000000000000
20
248.500000000000
11
265.000000000000
21
248.500000000000
0
LINE
8
LAYER1
62
1
10
265.000000000000
20
248.500000000000
11
265.000000000000
21
246.000000000000
0
LINE
8
LAYER1
62
1
10
265.000000000000
20
243.500000000000
11
265.000000000000
21
241.000000000000
0
LINE
8
LAYER1
62
1
10
265.000000000000
20
238.500000000000
11
265.000000000000
21
236.000000000000
0
LINE
8
LAYER1
62
1
10
265.000000000000
20
233.500000000000
11
265.000000000000
21
231.000000000000
0
LINE
8
LAYER1
62
1
10
265.000000000000
20
228.500000000000
11
265.000000000000
21
226.000000000000
0
LINE
8
LAYER1
62
1
10
265.000000000000
20
223.500000000000
11
265.000000000000
21
221.000000000000
0
LINE
8
LAYER1
62
1
10
265.000000000000
20
218.500000000000
11
265.000000000000
21
216.000000000000
0
LINE
8
LAYER1
62
1
10
265.000000000000
20
213.500000000000
11
265.000000000000
21
211.000000000000
0
LINE
8
LAYER1
62
1
10
265.000000000000
20
208.500000000000
11
265.000000000000
21
206.000000000000
0
LINE
8
LAYER1
62
1
10
265.000000000000
20
203.500000000000
11
265.000000000000
21
201.000000000000
0
LINE
8
LAYER1
62
1
10
265.000000000000
20
198.500000000000
11
265.000000000000
21
196.000000000000
0
LINE
8
LAYER1
62
1
10
265.000000000000
20
193.500000000000
11
265.000000000000
21
191.000000000000
0
LINE
8
LAYER1
62
1
10
265.000000000000
20
188.500000000000
11
265.000000000000
21
186.000000000000
0
LINE
8
LAYER1
62
1
10
265.000000000000
20
183.500000000000
11
265.000000000000
21
181.000000000000
0
LINE
8
LAYER1
62
1
10
265.000000000000
20
178.500000000000
11
265.000000000000
21
176.000000000000
0
LINE
8
LAYER1
62
1
10
265.000000000000
20
173.500000000000
11
265.000000000000
21
171.000000000000
0
LINE
8
LAYER1
62
1
10
265.000000000000
20
168.500000000000
11
265.000000000000
21
167.500000000000
0
LINE
8
LAYER2
62
2
10
93.500000000000
20
24.000004632448
11
91.000000000000
21
24.000004632448
0
LINE
8
LAYER2
62
2
10
88.500000000000
20
24.000004632448
11
86.000000000000
21
24.000004632448
0
LINE
8
LAYER2
62
2
10
83.500000000000
20
24.000004632448
11
81.000000000000
21
24.000004632448
0
LINE
8
LAYER2
62
2
10
78.500000000000
20
24.000004632448
11
76.000000000000
21
24.000004632448
0
LINE
8
LAYER2
62
2
10
73.500000000000
20
24.000004632448
11
71.000000000000
21
24.000004632448
0
LINE
8
LAYER2
62
2
10
68.500000000000
20
24.000004632448
11
66.000000000000
21
24.000004632448
0
LINE
8
LAYER2
62
2
10
63.500000000000
20
24.000004632448
11
61.000000000000
21
24.000004632448
0
LINE
8
LAYER2
62
2
10
58.500000000000
20
24.000004632448
11
56.000000000000
21
24.000004632448
0
LINE
8
LAYER2
62
2
10
53.500000000000
20
24.000004632448
11
51.000000000000
21
24.000004632448
0
LINE
8
LAYER2
62
2
10
48.500000000000
20
24.000004632448
11
46.000000000000
21
24.000004632448
0
LINE
8
LAYER2
62
2
10
43.500000000000
20
24.000004632448
11
41.000000000000
21
24.000004632448
0
LINE
8
LAYER2
62
2
10
38.500000000000
20
24.000004632448
11
36.000000000000
21
24.000004632448
0
LINE
8
LAYER2
62
2
10
33.500000000000
20
24.000004632448
11
31.000000000000
21
24.000004632448
0
LINE
8
LAYER2
62
2
10
28.500000000000
20
24.000004632448
11
26.000000000000
21
24.000004632448
0
LINE
8
LAYER2
62
2
10
23.500000000000
20
24.000004632448
11
21.000000000000
21
24.000004632448
0
LINE
8
LAYER2
62
2
10
18.500000000000
20
26.000004632448
11
21.000000000000
21
26.000004632448
0
LINE
8
LAYER2
62
2
10
23.500000000000
20
26.000004632448
11
26.000000000000
21
26.000004632448
0
LINE
8
LAYER2
62
2
10
28.500000000000
20
26.000004632448
11
31.000000000000
21
26.000004632448
0
LINE
8
LAYER2
62
2
10
33.500000000000
20
26.000004632448
11
36.000000000000
21
26.000004632448
0
LINE
8
LAYER2
62
2
10
38.500000000000
20
26.000004632448
11
41.000000000000
21
26.000004632448
0
LINE
8
LAYER2
62
2
10
43.500000000000
20
26.000004632448
11
46.000000000000
21
26.000004632448
0
LINE
8
LAYER2
62
2
10
48.500000000000
20
26.000004632448
11
51.000000000000
21
26.000004632448
0
LINE
8
LAYER2
62
2
10
53.500000000000
20
26.000004632448
11
56.000000000000
21
26.000004632448
0
LINE
8
LAYER2
62
2
10
58.500000000000
20
26.000004632448
11
61.000000000000
21
26.000004632448
0
LINE
8
LAYER2
62
2
10
63.500000000000
20
26.000004632448
11
66.000000000000
21
26.000004632448
0
LINE
8
LAYER2
62
2
10
68.500000000000
20
26.000004632448
11
71.000000000000
21
26.000004632448
0
LINE
8
LAYER2
62
2
10
73.500000000000
20
26.000004632448
11
76.000000000000
21
26.000004632448
0
LINE
8
LAYER2
62
2
10
78.500000000000
20
26.000004632448
11
81.000000000000
21
26.000004632448
0
LINE
8
LAYER2
62
2
10
83.500000000000
20
26.000004632448
11
86.000000000000
21
26.000004632448
0
LINE
8
LAYER2
62
2
10
88.500000000000
20
26.000004632448
11
91.000000000000
21
26.000004632448
0
LINE
8
LAYER2
62
2
10
93.500000000000
20
26.000004632448
11
93.500000000000
21
24.000004632448
0
LINE
8
LAYER2
62
2
10
18.500000000000
20
24.000004632448
11
18.500000000000
21
26.000004632448
0
LINE
8
LAYER2
62
2
10
93.500000000000
20
49.000004632448
11
91.000000000000
21
49.000004632448
0
LINE
8
LAYER2
62
2
10
88.500000000000
20
49.000004632448
11
86.000000000000
21
49.000004632448
0
LINE
8
LAYER2
62
2
10
83.500000000000
20
49.000004632448
11
81.000000000000
21
49.000004632448
0
LINE
8
LAYER2
62
2
10
78.500000000000
20
49.000004632448
11
76.000000000000
21
49.000004632448
0
LINE
8
LAYER2
62
2
10
73.500000000000
20
49.000004632448
11
71.000000000000
21
49.000004632448
0
LINE
8
LAYER2
62
2
10
68.500000000000
20
49.000004632448
11
66.000000000000
21
49.000004632448
0
LINE
8
LAYER2
62
2
10
63.500000000000
20
49.000004632448
11
61.000000000000
21
49.000004632448
0
LINE
8
LAYER2
62
2
10
58.500000000000
20
49.000004632448
11
56.000000000000
21
49.000004632448
0
LINE
8
LAYER2
62
2
10
53.500000000000
20
49.000004632448
11
51.000000000000
21
49.000004632448
0
LINE
8
LAYER2
62
2
10
48.500000000000
20
49.000004632448
11
46.000000000000
21
49.000004632448
0
LINE
8
LAYER2
62
2
10
43.500000000000
20
49.000004632448
11
41.000000000000
21
49.000004632448
0
LINE
8
LAYER2
62
2
10
38.500000000000
20
49.000004632448
11
36.000000000000
21
49.000004632448
0
LINE
8
LAYER2
62
2
10
33.500000000000
20
49.000004632448
11
31.000000000000
21
49.000004632448
0
LINE
8
LAYER2
62
2
10
28.500000000000
20
49.000004632448
11
26.000000000000
21
49.000004632448
0
LINE
8
LAYER2
62
2
10
23.500000000000
20
49.000004632448
11
21.000000000000
21
49.000004632448
0
LINE
8
LAYER2
62
2
10
18.500000000000
20
51.000004632448
11
21.000000000000
21
51.000004632448
0
LINE
8
LAYER2
62
2
10
23.500000000000
20
51.000004632448
11
26.000000000000
21
51.000004632448
0
LINE
8
LAYER2
62
2
10
28.500000000000
20
51.000004632448
11
31.000000000000
21
51.000004632448
0
LINE
8
LAYER2
62
2
10
33.500000000000
20
51.000004632448
11
36.000000000000
21
51.000004632448
0
LINE
8
LAYER2
62
2
10
38.500000000000
20
51.000004632448
11
41.000000000000
21
51.000004632448
0
LINE
8
LAYER2
62
2
10
43.500000000000
20
51.000004632448
11
46.000000000000
21
51.000004632448
0
LINE
8
LAYER2
62
2
10
48.500000000000
20
51.000004632448
11
51.000000000000
21
51.000004632448
0
LINE
8
LAYER2
62
2
10
53.500000000000
20
51.000004632448
11
56.000000000000
21
51.000004632448
0
LINE
8
LAYER2
62
2
10
58.500000000000
20
51.000004632448
11
61.000000000000
21
51.000004632448
0
LINE
8
LAYER2
62
2
10
63.500000000000
20
51.000004632448
11
66.000000000000
21
51.000004632448
0
LINE
8
LAYER2
62
2
10
68.500000000000
20
51.000004632448
11
71.000000000000
21
51.000004632448
0
LINE
8
LAYER2
62
2
10
73.500000000000
20
51.000004632448
11
76.000000000000
21
51.000004632448
0
LINE
8
LAYER2
62
2
10
78.500000000000
20
51.000004632448
11
81.000000000000
21
51.000004632448
0
LINE
8
LAYER2
62
2
10
83.500000000000
20
51.000004632448
11
86.000000000000
21
51.000004632448
0
LINE
8
LAYER2
62
2
10
88.500000000000
20
51.000004632448
11
91.000000000000
21
51.000004632448
0
LINE
8
LAYER2
62
2
10
93.500000000000
20
51.000004632448
11
93.500000000000
21
49.000004632448
0
LINE
8
LAYER2
62
2
10
18.500000000000
20
49.000004632448
11
18.500000000000
21
51.000004632448
0
LINE
8
LAYER2
62
2
10
93.500000000000
20
74.000004632448
11
91.000000000000
21
74.000004632448
0
LINE
8
LAYER2
62
2
10
88.500000000000
20
74.000004632448
11
86.000000000000
21
74.000004632448
0
LINE
8
LAYER2
62
2
10
83.500000000000
20
74.000004632448
11
81.000000000000
21
74.000004632448
0
LINE
8
LAYER2
62
2
10
78.500000000000
20
74.000004632448
11
76.000000000000
21
74.000004632448
0
LINE
8
LAYER2
62
2
10
73.500000000000
20
74.000004632448
11
71.000000000000
21
74.000004632448
0
LINE
8
LAYER2
62
2
10
68.500000000000
20
74.000004632448
11
66.000000000000
21
74.000004632448
0
LINE
8
LAYER2
62
2
10
63.500000000000
20
74.000004632448
11
61.000000000000
21
74.000004632448
0
LINE
8
LAYER2
62
2
10
58.500000000000
20
74.000004632448
11
56.000000000000
21
74.000004632448
0
LINE
8
LAYER2
62
2
10
53.500000000000
20
74.000004632448
11
51.000000000000
21
74.000004632448
0
LINE
8
LAYER2
62
2
10
48.500000000000
20
74.000004632448
11
46.000000000000
21
74.000004632448
0
LINE
8
LAYER2
62
2
10
43.500000000000
20
74.000004632448
11
41.000000000000
21
74.000004632448
0
LINE
8
LAYER2
62
2
10
38.500000000000
20
74.000004632448
11
36.000000000000
21
74.000004632448
0
LINE
8
LAYER2
62
2
10
33.500000000000
20
74.000004632448
11
31.000000000000
21
74.000004632448
0
LINE
8
LAYER2
62
2
10
28.500000000000
20
74.000004632448
11
26.000000000000
21
74.000004632448
0
LINE
8
LAYER2
62
2
10
23.500000000000
20
74.000004632448
11
21.000000000000
21
74.000004632448
0
LINE
8
LAYER2
62
2
10
18.500000000000
20
76.000004632448
11
21.000000000000
21
76.000004632448
0
LINE
8
LAYER2
62
2
10
23.500000000000
20
76.000004632448
11
26.000000000000
21
76.000004632448
0
LINE
8
LAYER2
62
2
10
28.500000000000
20
76.000004632448
11
31.000000000000
21
76.000004632448
0
LINE
8
LAYER2
62
2
10
33.500000000000
20
76.000004632448
11
36.000000000000
21
76.000004632448
0
LINE
8
LAYER2
62
2
10
38.500000000000
20
76.000004632448
11
41.000000000000
21
76.000004632448
0
LINE
8
LAYER2
62
2
10
43.500000000000
20
76.000004632448
11
46.000000000000
21
76.000004632448
0
LINE
8
LAYER2
62
2
10
48.500000000000
20
76.000004632448
11
51.000000000000
21
76.000004632448
0
LINE
8
LAYER2
62
2
10
53.500000000000
20
76.000004632448
11
56.000000000000
21
76.000004632448
0
LINE
8
LAYER2
62
2
10
58.500000000000
20
76.000004632448
11
61.000000000000
21
76.000004632448
0
LINE
8
LAYER2
62
2
10
63.500000000000
20
76.000004632448
11
66.000000000000
21
76.000004632448
0
LINE
8
LAYER2
62
2
10
68.500000000000
20
76.000004632448
11
71.000000000000
21
76.000004632448
0
LINE
8
LAYER2
62
2
10
73.500000000000
20
76.000004632448
11
76.000000000000
21
76.000004632448
0
LINE
8
LAYER2
62
2
10
78.500000000000
20
76.000004632448
11
81.000000000000
21
76.000004632448
0
LINE
8
LAYER2
62
2
10
83.500000000000
20
76.000004632448
11
86.000000000000
21
76.000004632448
0
LINE
8
LAYER2
62
2
10
88.500000000000
20
76.000004632448
11
91.000000000000
21
76.000004632448
0
LINE
8
LAYER2
62
2
10
93.500000000000
20
76.000004632448
11
93.500000000000
21
74.000004632448
0
LINE
8
LAYER2
62
2
10
18.500000000000
20
74.000004632448
11
18.500000000000
21
76.000004632448
0
LINE
8
LAYER2
62
2
10
93.500000000000
20
99.000004632448
11
91.000000000000
21
99.000004632448
0
LINE
8
LAYER2
62
2
10
88.500000000000
20
99.000004632448
11
86.000000000000
21
99.000004632448
0
LINE
8
LAYER2
62
2
10
83.500000000000
20
99.000004632448
11
81.000000000000
21
99.000004632448
0
LINE
8
LAYER2
62
2
10
78.500000000000
20
99.000004632448
11
76.000000000000
21
99.000004632448
0
LINE
8
LAYER2
62
2
10
73.500000000000
20
99.000004632448
11
71.000000000000
21
99.000004632448
0
LINE
8
LAYER2
62
2
10
68.500000000000
20
99.000004632448
11
66.000000000000
21
99.000004632448
0
LINE
8
LAYER2
62
2
10
63.500000000000
20
99.000004632448
11
61.000000000000
21
99.000004632448
0
LINE
8
LAYER2
62
2
10
58.500000000000
20
99.000004632448
11
56.000000000000
21
99.000004632448
0
LINE
8
LAYER2
62
2
10
53.500000000000
20
99.000004632448
11
51.000000000000
21
99.000004632448
0
LINE
8
LAYER2
62
2
10
48.500000000000
20
99.000004632448
11
46.000000000000
21
99.000004632448
0
LINE
8
LAYER2
62
2
10
43.500000000000
20
99.000004632448
11
41.000000000000
21
99.000004632448
0
LINE
8
LAYER2
62
2
10
38.500000000000
20
99.000004632448
11
36.000000000000
21
99.000004632448
0
LINE
8
LAYER2
62
2
10
33.500000000000
20
99.000004632448
11
31.000000000000
21
99.000004632448
0
LINE
8
LAYER2
62
2
10
28.500000000000
20
99.000004632448
11
26.000000000000
21
99.000004632448
0
LINE
8
LAYER2
62
2
10
23.500000000000
20
99.000004632448
11
21.000000000000
21
99.000004632448
0
LINE
8
LAYER2
62
2
10
18.500000000000
20
101.000004632448
11
21.000000000000
21
101.000004632448
0
LINE
8
LAYER2
62
2
10
23.500000000000
20
101.000004632448
11
26.000000000000
21
101.000004632448
0
LINE
8
LAYER2
62
2
10
28.500000000000
20
101.000004632448
11
31.000000000000
21
101.000004632448
0
LINE
8
LAYER2
62
2
10
33.500000000000
20
101.000004632448
11
36.000000000000
21
101.000004632448
0
LINE
8
LAYER2
62
2
10
38.500000000000
20
101.000004632448
11
41.000000000000
21
101.000004632448
0
LINE
8
LAYER2
62
2
10
43.500000000000
20
101.000004632448
11
46.000000000000
21
101.000004632448
0
LINE
8
LAYER2
62
2
10
48.500000000000
20
101.000004632448
11
51.000000000000
21
101.000004632448
0
LINE
8
LAYER2
62
2
10
53.500000000000
20
101.000004632448
11
56.000000000000
21
101.000004632448
0
LINE
8
LAYER2
62
2
10
58.500000000000
20
101.000004632448
11
61.000000000000
21
101.000004632448
0
LINE
8
LAYER2
62
2
10
63.500000000000
20
101.000004632448
11
66.000000000000
21
101.000004632448
0
LINE
8
LAYER2
62
2
10
68.500000000000
20
101.000004632448
11
71.000000000000
21
101.000004632448
0
LINE
8
LAYER2
62
2
10
73.500000000000
20
101.000004632448
11
76.000000000000
21
101.000004632448
0
LINE
8
LAYER2
62
2
10
78.500000000000
20
101.000004632448
11
81.000000000000
21
101.000004632448
0
LINE
8
LAYER2
62
2
10
83.500000000000
20
101.000004632448
11
86.000000000000
21
101.000004632448
0
LINE
8
LAYER2
62
2
10
88.500000000000
20
101.000004632448
11
91.000000000000
21
101.000004632448
0
LINE
8
LAYER2
62
2
10
93.500000000000
20
101.000004632448
11
93.500000000000
21
99.000004632448
0
LINE
8
LAYER2
62
2
10
18.500000000000
20
99.000004632448
11
18.500000000000
21
101.000004632448
0
LINE
8
LAYER2
62
2
10
93.500000000000
20
124.000004632448
11
91.000000000000
21
124.000004632448
0
LINE
8
LAYER2
62
2
10
88.500000000000
20
124.000004632448
11
86.000000000000
21
124.000004632448
0
LINE
8
LAYER2
62
2
10
83.500000000000
20
124.000004632448
11
81.000000000000
21
124.000004632448
0
LINE
8
LAYER2
62
2
10
78.500000000000
20
124.000004632448
11
76.000000000000
21
124.000004632448
0
LINE
8
LAYER2
62
2
10
73.500000000000
20
124.000004632448
11
71.000000000000
21
124.000004632448
0
LINE
8
LAYER2
62
2
10
68.500000000000
20
124.000004632448
11
66.000000000000
21
124.000004632448
0
LINE
8
LAYER2
62
2
10
63.500000000000
20
124.000004632448
11
61.000000000000
21
124.000004632448
0
LINE
8
LAYER2
62
2
10
58.500000000000
20
124.000004632448
11
56.000000000000
21
124.000004632448
0
LINE
8
LAYER2
62
2
10
53.500000000000
20
124.000004632448
11
51.000000000000
21
124.000004632448
0
LINE
8
LAYER2
62
2
10
48.500000000000
20
124.000004632448
11
46.000000000000
21
124.000004632448
0
LINE
8
LAYER2
62
2
10
43.500000000000
20
124.000004632448
11
41.000000000000
21
124.000004632448
0
LINE
8
LAYER2
62
2
10
38.500000000000
20
124.000004632448
11
36.000000000000
21
124.000004632448
0
LINE
8
LAYER2
62
2
10
33.500000000000
20
124.000004632448
11
31.000000000000
21
124.000004632448
0
LINE
8
LAYER2
62
2
10
28.500000000000
20
124.000004632448
11
26.000000000000
21
124.000004632448
0
LINE
8
LAYER2
62
2
10
23.500000000000
20
124.000004632448
11
21.000000000000
21
124.000004632448
0
LINE
8
LAYER2
62
2
10
18.500000000000
20
126.000004632448
11
21.000000000000
21
126.000004632448
0
LINE
8
LAYER2
62
2
10
23.500000000000
20
126.000004632448
11
26.000000000000
21
126.000004632448
0
LINE
8
LAYER2
62
2
10
28.500000000000
20
126.000004632448
11
31.000000000000
21
126.000004632448
0
LINE
8
LAYER2
62
2
10
33.500000000000
20
126.000004632448
11
36.000000000000
21
126.000004632448
0
LINE
8
LAYER2
62
2
10
38.500000000000
20
126.000004632448
11
41.000000000000
21
126.000004632448
0
LINE
8
LAYER2
62
2
10
43.500000000000
20
126.000004632448
11
46.000000000000
21
126.000004632448
0
LINE
8
LAYER2
62
2
10
48.500000000000
20
126.000004632448
11
51.000000000000
21
126.000004632448
0
LINE
8
LAYER2
62
2
10
53.500000000000
20
126.000004632448
11
56.000000000000
21
126.000004632448
0
LINE
8
LAYER2
62
2
10
58.500000000000
20
126.000004632448
11
61.000000000000
21
126.000004632448
0
LINE
8
LAYER2
62
2
10
63.500000000000
20
126.000004632448
11
66.000000000000
21
126.000004632448
0
LINE
8
LAYER2
62
2
10
68.500000000000
20
126.000004632448
11
71.000000000000
21
126.000004632448
0
LINE
8
LAYER2
62
2
10
73.500000000000
20
126.000004632448
11
76.000000000000
21
126.000004632448
0
LINE
8
LAYER2
62
2
10
78.500000000000
20
126.000004632448
11
81.000000000000
21
126.000004632448
0
LINE
8
LAYER2
62
2
10
83.500000000000
20
126.000004632448
11
86.000000000000
21
126.000004632448
0
LINE
8
LAYER2
62
2
10
88.500000000000
20
126.000004632448
11
91.000000000000
21
126.000004632448
0
LINE
8
LAYER2
62
2
10
93.500000000000
20
126.000004632448
11
93.500000000000
21
124.000004632448
0
LINE
8
LAYER2
62
2
10
18.500000000000
20
124.000004632448
11
18.500000000000
21
126.000004632448
0
LINE
8
LAYER2
62
2
10
93.500000000000
20
149.000004632448
11
91.000000000000
21
149.000004632448
0
LINE
8
LAYER2
62
2
10
88.500000000000
20
149.000004632448
11
86.000000000000
21
149.000004632448
0
LINE
8
LAYER2
62
2
10
83.500000000000
20
149.000004632448
11
81.000000000000
21
149.000004632448
0
LINE
8
LAYER2
62
2
10
78.500000000000
20
149.000004632448
11
76.000000000000
21
149.000004632448
0
LINE
8
LAYER2
62
2
10
73.500000000000
20
149.000004632448
11
71.000000000000
21
149.000004632448
0
LINE
8
LAYER2
62
2
10
68.500000000000
20
149.000004632448
11
66.000000000000
21
149.000004632448
0
LINE
8
LAYER2
62
2
10
63.500000000000
20
149.000004632448
11
61.000000000000
21
149.000004632448
0
LINE
8
LAYER2
62
2
10
58.500000000000
20
149.000004632448
11
56.000000000000
21
149.000004632448
0
LINE
8
LAYER2
62
2
10
53.500000000000
20
149.000004632448
11
51.000000000000
21
149.000004632448
0
LINE
8
LAYER2
62
2
10
48.500000000000
20
149.000004632448
11
46.000000000000
21
149.000004632448
0
LINE
8
LAYER2
62
2
10
43.500000000000
20
149.000004632448
11
41.000000000000
21
149.000004632448
0
LINE
8
LAYER2
62
2
10
38.500000000000
20
149.000004632448
11
36.000000000000
21
149.000004632448
0
LINE
8
LAYER2
62
2
10
33.500000000000
20
149.000004632448
11
31.000000000000
21
149.000004632448
0
LINE
8
LAYER2
62
2
10
28.500000000000
20
149.000004632448
11
26.000000000000
21
149.000004632448
0
LINE
8
LAYER2
62
2
10
23.500000000000
20
149.000004632448
11
21.000000000000
21
149.000004632448
0
LINE
8
LAYER2
62
2
10
18.500000000000
20
151.000004632448
11
21.000000000000
21
151.000004632448
0
LINE
8
LAYER2
62
2
10
23.500000000000
20
151.000004632448
11
26.000000000000
21
151.000004632448
0
LINE
8
LAYER2
62
2
10
28.500000000000
20
151.000004632448
11
31.000000000000
21
151.000004632448
0
LINE
8
LAYER2
62
2
10
33.500000000000
20
151.000004632448
11
36.000000000000
21
151.000004632448
0
LINE
8
LAYER2
62
2
10
38.500000000000
20
151.000004632448
11
41.000000000000
21
151.000004632448
0
LINE
8
LAYER2
62
2
10
43.500000000000
20
151.000004632448
11
46.000000000000
21
151.000004632448
0
LINE
8
LAYER2
62
2
10
48.500000000000
20
151.000004632448
11
51.000000000000
21
151.000004632448
0
LINE
8
LAYER2
62
2
10
53.500000000000
20
151.000004632448
11
56.000000000000
21
151.000004632448
0
LINE
8
LAYER2
62
2
10
58.500000000000
20
151.000004632448
11
61.000000000000
21
151.000004632448
0
LINE
8
LAYER2
62
2
10
63.500000000000
20
151.000004632448
11
66.000000000000
21
151.000004632448
0
LINE
8
LAYER2
62
2
10
68.500000000000
20
151.000004632448
11
71.000000000000
21
151.000004632448
0
LINE
8
LAYER2
62
2
10
73.500000000000
20
151.000004632448
11
76.000000000000
21
151.000004632448
0
LINE
8
LAYER2
62
2
10
78.500000000000
20
151.000004632448
11
81.000000000000
21
151.000004632448
0
LINE
8
LAYER2
62
2
10
83.500000000000
20
151.000004632448
11
86.000000000000
21
151.000004632448
0
LINE
8
LAYER2
62
2
10
88.500000000000
20
151.000004632448
11
91.000000000000
21
151.000004632448
0
LINE
8
LAYER2
62
2
10
93.500000000000
20
151.000004632448
11
93.500000000000
21
149.000004632448
0
LINE
8
LAYER2
62
2
10
18.500000000000
20
149.000004632448
11
18.500000000000
21
151.000004632448
0
LINE
8
LAYER2
62
2
10
91.870501012328
20
158.925975232036
11
89.597344699058
21
159.966532955297
0
LINE
8
LAYER2
62
2
10
87.324188385787
20
161.007090678559
11
85.051032072517
21
162.047648401820
0
LINE
8
LAYER2
62
2
10
82.777875759246
20
163.088206125081
11
80.504719445976
21
164.128763848342
0
LINE
8
LAYER2
62
2
10
78.231563132705
20
165.169321571603
11
75.958406819435
21
166.209879294864
0
LINE
8
LAYER2
62
2
10
73.685250506164
20
167.250437018125
11
71.412094192894
21
168.290994741386
0
LINE
8
LAYER2
62
2
10
69.138937879623
20
169.331552464647
11
66.865781566353
21
170.372110187909
0
LINE
8
LAYER2
62
2
10
64.592625253082
20
171.412667911170
11
62.319468939812
21
172.453225634431
0
LINE
8
LAYER2
62
2
10
60.046312626541
20
173.493783357692
11
57.773156313271
21
174.534341080953
0
LINE
8
LAYER2
62
2
10
55.500000000000
20
175.574898804214
11
53.226843686729
21
176.615456527475
0
LINE
8
LAYER2
62
2
10
50.953687373459
20
177.656014250736
11
48.680531060188
21
178.696571973997
0
LINE
8
LAYER2
62
2
10
46.407374746918
20
179.737129697259
11
44.134218433647
21
180.777687420520
0
LINE
8
LAYER2
62
2
10
41.861062120377
20
181.818245143781
11
39.587905807106
21
182.858802867042
0
LINE
8
LAYER2
62
2
10
37.314749493836
20
183.899360590303
11
35.041593180565
21
184.939918313564
0
LINE
8
LAYER2
62
2
10
32.768436867295
20
185.980476036825
11
30.495280554024
21
187.021033760086
0
LINE
8
LAYER2
62
2
10
28.222124240754
20
188.061591483348
11
25.948967927483
21
189.102149206609
0
LINE
8
LAYER2
62
2
10
23.675811614213
20
190.142706929870
11
21.402655300942
21
191.183264653131
0
LINE
8
LAYER2
62
2
10
19.961945166281
20
194.042347427009
11
22.235101479551
21
193.001789703748
0
LINE
8
LAYER2
62
2
10
24.508257792822
20
191.961231980487
11
26.781414106092
21
190.920674257225
0
LINE
8
LAYER2
62
2
10
29.054570419363
20
189.880116533964
11
31.327726732633
21
188.839558810703
0
LINE
8
LAYER2
62
2
10
33.600883045904
20
187.799001087442
11
35.874039359174
21
186.758443364181
0
LINE
8
LAYER2
62
2
10
38.147195672445
20
185.717885640920
11
40.420351985715
21
184.677327917659
0
LINE
8
LAYER2
62
2
10
42.693508298986
20
183.636770194398
11
44.966664612256
21
182.596212471137
0
LINE
8
LAYER2
62
2
10
47.239820925527
20
181.555654747875
11
49.512977238797
21
180.515097024614
0
LINE
8
LAYER2
62
2
10
51.786133552068
20
179.474539301353
11
54.059289865338
21
178.433981578092
0
LINE
8
LAYER2
62
2
10
56.332446178609
20
177.393423854831
11
58.605602491879
21
176.352866131570
0
LINE
8
LAYER2
62
2
10
60.878758805150
20
175.312308408309
11
63.151915118420
21
174.271750685048
0
LINE
8
LAYER2
62
2
10
65.425071431691
20
173.231192961787
11
67.698227744961
21
172.190635238525
0
LINE
8
LAYER2
62
2
10
69.971384058232
20
171.150077515264
11
72.244540371503
21
170.109519792003
0
LINE
8
LAYER2
62
2
10
74.517696684773
20
169.068962068742
11
76.790852998044
21
168.028404345481
0
LINE
8
LAYER2
62
2
10
79.064009311314
20
166.987846622220
11
81.337165624585
21
165.947288898959
0
LINE
8
LAYER2
62
2
10
83.610321937855
20
164.906731175698
11
85.883478251126
21
163.866173452436
0
LINE
8
LAYER2
62
2
10
88.156634564396
20
162.825615729175
11
90.429790877667
21
161.785058005914
0
LINE
8
LAYER2
62
2
10
92.702947190937
20
160.744500282653
11
91.870501012328
21
158.925975232036
0
LINE
8
LAYER2
62
2
10
19.129498987672
20
192.223822376392
11
19.961945166281
21
194.042347427009
0
LINE
8
LAYER2
62
2
10
93.510712611257
20
168.620754068106
11
91.784157316818
21
170.428793563041
0
LINE
8
LAYER2
62
2
10
90.057602022380
20
172.236833057977
11
88.331046727941
21
174.044872552912
0
LINE
8
LAYER2
62
2
10
86.604491433503
20
175.852912047848
11
84.877936139064
21
177.660951542783
0
LINE
8
LAYER2
62
2
10
83.151380844626
20
179.468991037719
11
81.424825550187
21
181.277030532654
0
LINE
8
LAYER2
62
2
10
79.698270255749
20
183.085070027589
11
77.971714961310
21
184.893109522525
0
LINE
8
LAYER2
62
2
10
76.245159666872
20
186.701149017460
11
74.518604372433
21
188.509188512396
0
LINE
8
LAYER2
62
2
10
72.792049077995
20
190.317228007331
11
71.065493783556
21
192.125267502267
0
LINE
8
LAYER2
62
2
10
69.338938489118
20
193.933306997202
11
67.612383194679
21
195.741346492137
0
LINE
8
LAYER2
62
2
10
65.885827900241
20
197.549385987073
11
64.159272605802
21
199.357425482008
0
LINE
8
LAYER2
62
2
10
62.432717311364
20
201.165464976944
11
60.706162016925
21
202.973504471879
0
LINE
8
LAYER2
62
2
10
58.979606722487
20
204.781543966815
11
57.253051428048
21
206.589583461750
0
LINE
8
LAYER2
62
2
10
55.526496133610
20
208.397622956685
11
53.799940839171
21
210.205662451621
0
LINE
8
LAYER2
62
2
10
52.073385544733
20
212.013701946556
11
50.346830250294
21
213.821741441492
0
LINE
8
LAYER2
62
2
10
48.620274955856
20
215.629780936427
11
46.893719661417
21
217.437820431363
0
LINE
8
LAYER2
62
2
10
45.167164366979
20
219.245859926298
11
43.440609072540
21
221.053899421233
0
LINE
8
LAYER2
62
2
10
41.714053778102
20
222.861938916169
11
39.987498483663
21
224.669978411104
0
LINE
8
LAYER2
62
2
10
38.260943189225
20
226.478017906040
11
36.534387894786
21
228.286057400975
0
LINE
8
LAYER2
62
2
10
34.807832600348
20
230.094096895911
11
33.081277305909
21
231.902136390846
0
LINE
8
LAYER2
62
2
10
31.354722011471
20
233.710175885781
11
29.628166717032
21
235.518215380717
0
LINE
8
LAYER2
62
2
10
27.901611422593
20
237.326254875652
11
26.175056128155
21
239.134294370588
0
LINE
8
LAYER2
62
2
10
24.448500833716
20
240.942333865523
11
22.721945539278
21
242.750373360459
0
LINE
8
LAYER2
62
2
10
22.441821840788
20
245.939657090945
11
24.168377135226
21
244.131617596009
0
LINE
8
LAYER2
62
2
10
25.894932429665
20
242.323578101074
11
27.621487724103
21
240.515538606138
0
LINE
8
LAYER2
62
2
10
29.348043018542
20
238.707499111203
11
31.074598312980
21
236.899459616267
0
LINE
8
LAYER2
62
2
10
32.801153607419
20
235.091420121332
11
34.527708901857
21
233.283380626397
0
LINE
8
LAYER2
62
2
10
36.254264196296
20
231.475341131461
11
37.980819490734
21
229.667301636526
0
LINE
8
LAYER2
62
2
10
39.707374785173
20
227.859262141590
11
41.433930079611
21
226.051222646655
0
LINE
8
LAYER2
62
2
10
43.160485374050
20
224.243183151719
11
44.887040668488
21
222.435143656784
0
LINE
8
LAYER2
62
2
10
46.613595962927
20
220.627104161849
11
48.340151257365
21
218.819064666913
0
LINE
8
LAYER2
62
2
10
50.066706551804
20
217.011025171978
11
51.793261846242
21
215.202985677042
0
LINE
8
LAYER2
62
2
10
53.519817140681
20
213.394946182107
11
55.246372435119
21
211.586906687171
0
LINE
8
LAYER2
62
2
10
56.972927729558
20
209.778867192236
11
58.699483023996
21
207.970827697301
0
LINE
8
LAYER2
62
2
10
60.426038318435
20
206.162788202365
11
62.152593612873
21
204.354748707430
0
LINE
8
LAYER2
62
2
10
63.879148907312
20
202.546709212494
11
65.605704201750
21
200.738669717559
0
LINE
8
LAYER2
62
2
10
67.332259496189
20
198.930630222623
11
69.058814790628
21
197.122590727688
0
LINE
8
LAYER2
62
2
10
70.785370085066
20
195.314551232753
11
72.511925379505
21
193.506511737817
0
LINE
8
LAYER2
62
2
10
74.238480673943
20
191.698472242882
11
75.965035968382
21
189.890432747946
0
LINE
8
LAYER2
62
2
10
77.691591262820
20
188.082393253011
11
79.418146557259
21
186.274353758075
0
LINE
8
LAYER2
62
2
10
81.144701851697
20
184.466314263140
11
82.871257146136
21
182.658274768205
0
LINE
8
LAYER2
62
2
10
84.597812440574
20
180.850235273269
11
86.324367735013
21
179.042195778334
0
LINE
8
LAYER2
62
2
10
88.050923029451
20
177.234156283398
11
89.777478323890
21
175.426116788463
0
LINE
8
LAYER2
62
2
10
91.504033618328
20
173.618077293527
11
93.230588912767
21
171.810037798592
0
LINE
8
LAYER2
62
2
10
94.957144207205
20
170.001998303657
11
93.510712611257
21
168.620754068106
0
LINE
8
LAYER2
62
2
10
20.995390244839
20
244.558412855394
11
22.441821840788
21
245.939657090945
0
LINE
8
LAYER2
62
2
10
101.342168168745
20
168.815143883591
11
100.597613028470
21
171.201697390866
0
LINE
8
LAYER2
62
2
10
99.853057888194
20
173.588250898142
11
99.108502747919
21
175.974804405417
0
LINE
8
LAYER2
62
2
10
98.363947607643
20
178.361357912693
11
97.619392467368
21
180.747911419968
0
LINE
8
LAYER2
62
2
10
96.874837327092
20
183.134464927244
11
96.130282186817
21
185.521018434520
0
LINE
8
LAYER2
62
2
10
95.385727046542
20
187.907571941795
11
94.641171906266
21
190.294125449071
0
LINE
8
LAYER2
62
2
10
93.896616765991
20
192.680678956346
11
93.152061625715
21
195.067232463622
0
LINE
8
LAYER2
62
2
10
92.407506485440
20
197.453785970898
11
91.662951345164
21
199.840339478173
0
LINE
8
LAYER2
62
2
10
90.918396204889
20
202.226892985449
11
90.173841064614
21
204.613446492724
0
LINE
8
LAYER2
62
2
10
89.429285924338
20
207.000000000000
11
88.684730784063
21
209.386553507275
0
LINE
8
LAYER2
62
2
10
87.940175643787
20
211.773107014551
11
87.195620503512
21
214.159660521827
0
LINE
8
LAYER2
62
2
10
86.451065363236
20
216.546214029102
11
85.706510222961
21
218.932767536378
0
LINE
8
LAYER2
62
2
10
84.961955082685
20
221.319321043653
11
84.217399942410
21
223.705874550929
0
LINE
8
LAYER2
62
2
10
83.472844802135
20
226.092428058204
11
82.728289661859
21
228.478981565480
0
LINE
8
LAYER2
62
2
10
81.983734521584
20
230.865535072756
11
81.239179381308
21
233.252088580031
0
LINE
8
LAYER2
62
2
10
80.494624241033
20
235.638642087307
11
79.750069100757
21
238.025195594582
0
LINE
8
LAYER2
62
2
10
79.005513960482
20
240.411749101858
11
78.260958820207
21
242.798302609134
0
LINE
8
LAYER2
62
2
10
79.425646485751
20
245.780500228630
11
80.170201626027
21
243.393946721354
0
LINE
8
LAYER2
62
2
10
80.914756766302
20
241.007393214079
11
81.659311906578
21
238.620839706803
0
LINE
8
LAYER2
62
2
10
82.403867046853
20
236.234286199527
11
83.148422187129
21
233.847732692252
0
LINE
8
LAYER2
62
2
10
83.892977327404
20
231.461179184976
11
84.637532467680
21
229.074625677701
0
LINE
8
LAYER2
62
2
10
85.382087607955
20
226.688072170425
11
86.126642748230
21
224.301518663150
0
LINE
8
LAYER2
62
2
10
86.871197888506
20
221.914965155874
11
87.615753028781
21
219.528411648598
0
LINE
8
LAYER2
62
2
10
88.360308169057
20
217.141858141323
11
89.104863309332
21
214.755304634047
0
LINE
8
LAYER2
62
2
10
89.849418449608
20
212.368751126772
11
90.593973589883
21
209.982197619496
0
LINE
8
LAYER2
62
2
10
91.338528730159
20
207.595644112220
11
92.083083870434
21
205.209090604945
0
LINE
8
LAYER2
62
2
10
92.827639010710
20
202.822537097669
11
93.572194150985
21
200.435983590394
0
LINE
8
LAYER2
62
2
10
94.316749291260
20
198.049430083118
11
95.061304431536
21
195.662876575843
0
LINE
8
LAYER2
62
2
10
95.805859571811
20
193.276323068567
11
96.550414712087
21
190.889769561291
0
LINE
8
LAYER2
62
2
10
97.294969852362
20
188.503216054016
11
98.039524992638
21
186.116662546740
0
LINE
8
LAYER2
62
2
10
98.784080132913
20
183.730109039465
11
99.528635273189
21
181.343555532189
0
LINE
8
LAYER2
62
2
10
100.273190413464
20
178.957002024914
11
101.017745553739
21
176.570448517638
0
LINE
8
LAYER2
62
2
10
101.762300694015
20
174.183895010362
11
102.506855834290
21
171.797341503087
0
LINE
8
LAYER2
62
2
10
103.251410974566
20
169.410787995811
11
101.342168168745
21
168.815143883591
0
LINE
8
LAYER2
62
2
10
77.516403679931
20
245.184856116409
11
79.425646485751
21
245.780500228630
0
LINE
8
LAYER2
62
2
10
115.000000000000
20
169.500000000000
11
115.000000000000
21
172.000000000000
0
LINE
8
LAYER2
62
2
10
115.000000000000
20
174.500000000000
11
115.000000000000
21
177.000000000000
0
LINE
8
LAYER2
62
2
10
115.000000000000
20
179.500000000000
11
115.000000000000
21
182.000000000000
0
LINE
8
LAYER2
62
2
10
115.000000000000
20
184.500000000000
11
115.000000000000
21
187.000000000000
0
LINE
8
LAYER2
62
2
10
115.000000000000
20
189.500000000000
11
115.000000000000
21
192.000000000000
0
LINE
8
LAYER2
62
2
10
115.000000000000
20
194.500000000000
11
115.000000000000
21
197.000000000000
0
LINE
8
LAYER2
62
2
10
115.000000000000
20
199.500000000000
11
115.000000000000
21
202.000000000000
0
LINE
8
LAYER2
62
2
10
115.000000000000
20
204.500000000000
11
115.000000000000
21
207.000000000000
0
LINE
8
LAYER2
62
2
10
115.000000000000
20
209.500000000000
11
115.000000000000
21
212.000000000000
0
LINE
8
LAYER2
62
2
10
115.000000000000
20
214.500000000000
11
115.000000000000
21
217.000000000000
0
LINE
8
LAYER2
62
2
10
115.000000000000
20
219.500000000000
11
115.000000000000
21
222.000000000000
0
LINE
8
LAYER2
62
2
10
115.000000000000
20
224.500000000000
11
115.000000000000
21
227.000000000000
0
LINE
8
LAYER2
62
2
10
115.000000000000
20
229.500000000000
11
115.000000000000
21
232.000000000000
0
LINE
8
LAYER2
62
2
10
115.000000000000
20
234.500000000000
11
115.000000000000
21
237.000000000000
0
LINE
8
LAYER2
62
2
10
115.000000000000
20
239.500000000000
11
115.000000000000
21
242.000000000000
0
LINE
8
LAYER2
62
2
10
117.000000000000
20
244.500000000000
11
117.000000000000
21
242.000000000000
0
LINE
8
LAYER2
62
2
10
117.000000000000
20
239.500000000000
11
117.000000000000
21
237.000000000000
0
LINE
8
LAYER2
62
2
10
117.000000000000
20
234.500000000000
11
117.000000000000
21
232.000000000000
0
LINE
8
LAYER2
62
2
10
117.000000000000
20
229.500000000000
11
117.000000000000
21
227.000000000000
0
LINE
8
LAYER2
62
2
10
117.000000000000
20
224.500000000000
11
117.000000000000
21
222.000000000000
0
LINE
8
LAYER2
62
2
10
117.000000000000
20
219.500000000000
11
117.000000000000
21
217.000000000000
0
LINE
8
LAYER2
62
2
10
117.000000000000
20
214.500000000000
11
117.000000000000
21
212.000000000000
0
LINE
8
LAYER2
62
2
10
117.000000000000
20
209.500000000000
11
117.000000000000
21
207.000000000000
0
LINE
8
LAYER2
62
2
10
117.000000000000
20
204.500000000000
11
117.000000000000
21
202.000000000000
0
LINE
8
LAYER2
62
2
10
117.000000000000
20
199.500000000000
11
117.000000000000
21
197.000000000000
0
LINE
8
LAYER2
62
2
10
117.000000000000
20
194.500000000000
11
117.000000000000
21
192.000000000000
0
LINE
8
LAYER2
62
2
10
117.000000000000
20
189.500000000000
11
117.000000000000
21
187.000000000000
0
LINE
8
LAYER2
62
2
10
117.000000000000
20
184.500000000000
11
117.000000000000
21
182.000000000000
0
LINE
8
LAYER2
62
2
10
117.000000000000
20
179.500000000000
11
117.000000000000
21
177.000000000000
0
LINE
8
LAYER2
62
2
10
117.000000000000
20
174.500000000000
11
117.000000000000
21
172.000000000000
0
LINE
8
LAYER2
62
2
10
117.000000000000
20
169.500000000000
11
115.000000000000
21
169.500000000000
0
LINE
8
LAYER2
62
2
10
115.000000000000
20
244.500000000000
11
117.000000000000
21
244.500000000000
0
LINE
8
LAYER2
62
2
10
140.000000000000
20
169.500000000000
11
140.000000000000
21
172.000000000000
0
LINE
8
LAYER2
62
2
10
140.000000000000
20
174.500000000000
11
140.000000000000
21
177.000000000000
0
LINE
8
LAYER2
62
2
10
140.000000000000
20
179.500000000000
11
140.000000000000
21
182.000000000000
0
LINE
8
LAYER2
62
2
10
140.000000000000
20
184.500000000000
11
140.000000000000
21
187.000000000000
0
LINE
8
LAYER2
62
2
10
140.000000000000
20
189.500000000000
11
140.000000000000
21
192.000000000000
0
LINE
8
LAYER2
62
2
10
140.000000000000
20
194.500000000000
11
140.000000000000
21
197.000000000000
0
LINE
8
LAYER2
62
2
10
140.000000000000
20
199.500000000000
11
140.000000000000
21
202.000000000000
0
LINE
8
LAYER2
62
2
10
140.000000000000
20
204.500000000000
11
140.000000000000
21
207.000000000000
0
LINE
8
LAYER2
62
2
10
140.000000000000
20
209.500000000000
11
140.000000000000
21
212.000000000000
0
LINE
8
LAYER2
62
2
10
140.000000000000
20
214.500000000000
11
140.000000000000
21
217.000000000000
0
LINE
8
LAYER2
62
2
10
140.000000000000
20
219.500000000000
11
140.000000000000
21
222.000000000000
0
LINE
8
LAYER2
62
2
10
140.000000000000
20
224.500000000000
11
140.000000000000
21
227.000000000000
0
LINE
8
LAYER2
62
2
10
140.000000000000
20
229.500000000000
11
140.000000000000
21
232.000000000000
0
LINE
8
LAYER2
62
2
10
140.000000000000
20
234.500000000000
11
140.000000000000
21
237.000000000000
0
LINE
8
LAYER2
62
2
10
140.000000000000
20
239.500000000000
11
140.000000000000
21
242.000000000000
0
LINE
8
LAYER2
62
2
10
142.000000000000
20
244.500000000000
11
142.000000000000
21
242.000000000000
0
LINE
8
LAYER2
62
2
10
142.000000000000
20
239.500000000000
11
142.000000000000
21
237.000000000000
0
LINE
8
LAYER2
62
2
10
142.000000000000
20
234.500000000000
11
142.000000000000
21
232.000000000000
0
LINE
8
LAYER2
62
2
10
142.000000000000
20
229.500000000000
11
142.000000000000
21
227.000000000000
0
LINE
8
LAYER2
62
2
10
142.000000000000
20
224.500000000000
11
142.000000000000
21
222.000000000000
0
LINE
8
LAYER2
62
2
10
142.000000000000
20
219.500000000000
11
142.000000000000
21
217.000000000000
0
LINE
8
LAYER2
62
2
10
142.000000000000
20
214.500000000000
11
142.000000000000
21
212.000000000000
0
LINE
8
LAYER2
62
2
10
142.000000000000
20
209.500000000000
11
142.000000000000
21
207.000000000000
0
LINE
8
LAYER2
62
2
10
142.000000000000
20
204.500000000000
11
142.000000000000
21
202.000000000000
0
LINE
8
LAYER2
62
2
10
142.000000000000
20
199.500000000000
11
142.000000000000
21
197.000000000000
0
LINE
8
LAYER2
62
2
10
142.000000000000
20
194.500000000000
11
142.000000000000
21
192.000000000000
0
LINE
8
LAYER2
62
2
10
142.000000000000
20
189.500000000000
11
142.000000000000
21
187.000000000000
0
LINE
8
LAYER2
62
2
10
142.000000000000
20
184.500000000000
11
142.000000000000
21
182.000000000000
0
LINE
8
LAYER2
62
2
10
142.000000000000
20
179.500000000000
11
142.000000000000
21
177.000000000000
0
LINE
8
LAYER2
62
2
10
142.000000000000
20
174.500000000000
11
142.000000000000
21
172.000000000000
0
LINE
8
LAYER2
62
2
10
142.000000000000
20
169.500000000000
11
140.000000000000
21
169.500000000000
0
LINE
8
LAYER2
62
2
10
140.000000000000
20
244.500000000000
11
142.000000000000
21
244.500000000000
0
LINE
8
LAYER2
62
2
10
165.000000000000
20
169.500000000000
11
165.000000000000
21
172.000000000000
0
LINE
8
LAYER2
62
2
10
165.000000000000
20
174.500000000000
11
165.000000000000
21
177.000000000000
0
LINE
8
LAYER2
62
2
10
165.000000000000
20
179.500000000000
11
165.000000000000
21
182.000000000000
0
LINE
8
LAYER2
62
2
10
165.000000000000
20
184.500000000000
11
165.000000000000
21
187.000000000000
0
LINE
8
LAYER2
62
2
10
165.000000000000
20
189.500000000000
11
165.000000000000
21
192.000000000000
0
LINE
8
LAYER2
62
2
10
165.000000000000
20
194.500000000000
11
165.000000000000
21
197.000000000000
0
LINE
8
LAYER2
62
2
10
165.000000000000
20
199.500000000000
11
165.000000000000
21
202.000000000000
0
LINE
8
LAYER2
62
2
10
165.000000000000
20
204.500000000000
11
165.000000000000
21
207.000000000000
0
LINE
8
LAYER2
62
2
10
165.000000000000
20
209.500000000000
11
165.000000000000
21
212.000000000000
0
LINE
8
LAYER2
62
2
10
165.000000000000
20
214.500000000000
11
165.000000000000
21
217.000000000000
0
LINE
8
LAYER2
62
2
10
165.000000000000
20
219.500000000000
11
165.000000000000
21
222.000000000000
0
LINE
8
LAYER2
62
2
10
165.000000000000
20
224.500000000000
11
165.000000000000
21
227.000000000000
0
LINE
8
LAYER2
62
2
10
165.000000000000
20
229.500000000000
11
165.000000000000
21
232.000000000000
0
LINE
8
LAYER2
62
2
10
165.000000000000
20
234.500000000000
11
165.000000000000
21
237.000000000000
0
LINE
8
LAYER2
62
2
10
165.000000000000
20
239.500000000000
11
165.000000000000
21
242.000000000000
0
LINE
8
LAYER2
62
2
10
167.000000000000
20
244.500000000000
11
167.000000000000
21
242.000000000000
0
LINE
8
LAYER2
62
2
10
167.000000000000
20
239.500000000000
11
167.000000000000
21
237.000000000000
0
LINE
8
LAYER2
62
2
10
167.000000000000
20
234.500000000000
11
167.000000000000
21
232.000000000000
0
LINE
8
LAYER2
62
2
10
167.000000000000
20
229.500000000000
11
167.000000000000
21
227.000000000000
0
LINE
8
LAYER2
62
2
10
167.000000000000
20
224.500000000000
11
167.000000000000
21
222.000000000000
0
LINE
8
LAYER2
62
2
10
167.000000000000
20
219.500000000000
11
167.000000000000
21
217.000000000000
0
LINE
8
LAYER2
62
2
10
167.000000000000
20
214.500000000000
11
167.000000000000
21
212.000000000000
0
LINE
8
LAYER2
62
2
10
167.000000000000
20
209.500000000000
11
167.000000000000
21
207.000000000000
0
LINE
8
LAYER2
62
2
10
167.000000000000
20
204.500000000000
11
167.000000000000
21
202.000000000000
0
LINE
8
LAYER2
62
2
10
167.000000000000
20
199.500000000000
11
167.000000000000
21
197.000000000000
0
LINE
8
LAYER2
62
2
10
167.000000000000
20
194.500000000000
11
167.000000000000
21
192.000000000000
0
LINE
8
LAYER2
62
2
10
167.000000000000
20
189.500000000000
11
167.000000000000
21
187.000000000000
0
LINE
8
LAYER2
62
2
10
167.000000000000
20
184.500000000000
11
167.000000000000
21
182.000000000000
0
LINE
8
LAYER2
62
2
10
167.000000000000
20
179.500000000000
11
167.000000000000
21
177.000000000000
0
LINE
8
LAYER2
62
2
10
167.000000000000
20
174.500000000000
11
167.000000000000
21
172.000000000000
0
LINE
8
LAYER2
62
2
10
167.000000000000
20
169.500000000000
11
165.000000000000
21
169.500000000000
0
LINE
8
LAYER2
62
2
10
165.000000000000
20
244.500000000000
11
167.000000000000
21
244.500000000000
0
LINE
8
LAYER2
62
2
10
190.000000000000
20
169.500000000000
11
190.000000000000
21
172.000000000000
0
LINE
8
LAYER2
62
2
10
190.000000000000
20
174.500000000000
11
190.000000000000
21
177.000000000000
0
LINE
8
LAYER2
62
2
10
190.000000000000
20
179.500000000000
11
190.000000000000
21
182.000000000000
0
LINE
8
LAYER2
62
2
10
190.000000000000
20
184.500000000000
11
190.000000000000
21
187.000000000000
0
LINE
8
LAYER2
62
2
10
190.000000000000
20
189.500000000000
11
190.000000000000
21
192.000000000000
0
LINE
8
LAYER2
62
2
10
190.000000000000
20
194.500000000000
11
190.000000000000
21
197.000000000000
0
LINE
8
LAYER2
62
2
10
190.000000000000
20
199.500000000000
11
190.000000000000
21
202.000000000000
0
LINE
8
LAYER2
62
2
10
190.000000000000
20
204.500000000000
11
190.000000000000
21
207.000000000000
0
LINE
8
LAYER2
62
2
10
190.000000000000
20
209.500000000000
11
190.000000000000
21
212.000000000000
0
LINE
8
LAYER2
62
2
10
190.000000000000
20
214.500000000000
11
190.000000000000
21
217.000000000000
0
LINE
8
LAYER2
62
2
10
190.000000000000
20
219.500000000000
11
190.000000000000
21
222.000000000000
0
LINE
8
LAYER2
62
2
10
190.000000000000
20
224.500000000000
11
190.000000000000
21
227.000000000000
0
LINE
8
LAYER2
62
2
10
190.000000000000
20
229.500000000000
11
190.000000000000
21
232.000000000000
0
LINE
8
LAYER2
62
2
10
190.000000000000
20
234.500000000000
11
190.000000000000
21
237.000000000000
0
LINE
8
LAYER2
62
2
10
190.000000000000
20
239.500000000000
11
190.000000000000
21
242.000000000000
0
LINE
8
LAYER2
62
2
10
192.000000000000
20
244.500000000000
11
192.000000000000
21
242.000000000000
0
LINE
8
LAYER2
62
2
10
192.000000000000
20
239.500000000000
11
192.000000000000
21
237.000000000000
0
LINE
8
LAYER2
62
2
10
192.000000000000
20
234.500000000000
11
192.000000000000
21
232.000000000000
0
LINE
8
LAYER2
62
2
10
192.000000000000
20
229.500000000000
11
192.000000000000
21
227.000000000000
0
LINE
8
LAYER2
62
2
10
192.000000000000
20
224.500000000000
11
192.000000000000
21
222.000000000000
0
LINE
8
LAYER2
62
2
10
192.000000000000
20
219.500000000000
11
192.000000000000
21
217.000000000000
0
LINE
8
LAYER2
62
2
10
192.000000000000
20
214.500000000000
11
192.000000000000
21
212.000000000000
0
LINE
8
LAYER2
62
2
10
192.000000000000
20
209.500000000000
11
192.000000000000
21
207.000000000000
0
LINE
8
LAYER2
62
2
10
192.000000000000
20
204.500000000000
11
192.000000000000
21
202.000000000000
0
LINE
8
LAYER2
62
2
10
192.000000000000
20
199.500000000000
11
192.000000000000
21
197.000000000000
0
LINE
8
LAYER2
62
2
10
192.000000000000
20
194.500000000000
11
192.000000000000
21
192.000000000000
0
LINE
8
LAYER2
62
2
10
192.000000000000
20
189.500000000000
11
192.000000000000
21
187.000000000000
0
LINE
8
LAYER2
62
2
10
192.000000000000
20
184.500000000000
11
192.000000000000
21
182.000000000000
0
LINE
8
LAYER2
62
2
10
192.000000000000
20
179.500000000000
11
192.000000000000
21
177.000000000000
0
LINE
8
LAYER2
62
2
10
192.000000000000
20
174.500000000000
11
192.000000000000
21
172.000000000000
0
LINE
8
LAYER2
62
2
10
192.000000000000
20
169.500000000000
11
190.000000000000
21
169.500000000000
0
LINE
8
LAYER2
62
2
10
190.000000000000
20
244.500000000000
11
192.000000000000
21
244.500000000000
0
LINE
8
LAYER2
62
2
10
215.000000000000
20
169.500000000000
11
215.000000000000
21
172.000000000000
0
LINE
8
LAYER2
62
2
10
215.000000000000
20
174.500000000000
11
215.000000000000
21
177.000000000000
0
LINE
8
LAYER2
62
2
10
215.000000000000
20
179.500000000000
11
215.000000000000
21
182.000000000000
0
LINE
8
LAYER2
62
2
10
215.000000000000
20
184.500000000000
11
215.000000000000
21
187.000000000000
0
LINE
8
LAYER2
62
2
10
215.000000000000
20
189.500000000000
11
215.000000000000
21
192.000000000000
0
LINE
8
LAYER2
62
2
10
215.000000000000
20
194.500000000000
11
215.000000000000
21
197.000000000000
0
LINE
8
LAYER2
62
2
10
215.000000000000
20
199.500000000000
11
215.000000000000
21
202.000000000000
0
LINE
8
LAYER2
62
2
10
215.000000000000
20
204.500000000000
11
215.000000000000
21
207.000000000000
0
LINE
8
LAYER2
62
2
10
215.000000000000
20
209.500000000000
11
215.000000000000
21
212.000000000000
0
LINE
8
LAYER2
62
2
10
215.000000000000
20
214.500000000000
11
215.000000000000
21
217.000000000000
0
LINE
8
LAYER2
62
2
10
215.000000000000
20
219.500000000000
11
215.000000000000
21
222.000000000000
0
LINE
8
LAYER2
62
2
10
215.000000000000
20
224.500000000000
11
215.000000000000
21
227.000000000000
0
LINE
8
LAYER2
62
2
10
215.000000000000
20
229.500000000000
11
215.000000000000
21
232.000000000000
0
LINE
8
LAYER2
62
2
10
215.000000000000
20
234.500000000000
11
215.000000000000
21
237.000000000000
0
LINE
8
LAYER2
62
2
10
215.000000000000
20
239.500000000000
11
215.000000000000
21
242.000000000000
0
LINE
8
LAYER2
62
2
10
217.000000000000
20
244.500000000000
11
217.000000000000
21
242.000000000000
0
LINE
8
LAYER2
62
2
10
217.000000000000
20
239.500000000000
11
217.000000000000
21
237.000000000000
0
LINE
8
LAYER2
62
2
10
217.000000000000
20
234.500000000000
11
217.000000000000
21
232.000000000000
0
LINE
8
LAYER2
62
2
10
217.000000000000
20
229.500000000000
11
217.000000000000
21
227.000000000000
0
LINE
8
LAYER2
62
2
10
217.000000000000
20
224.500000000000
11
217.000000000000
21
222.000000000000
0
LINE
8
LAYER2
62
2
10
217.000000000000
20
219.500000000000
11
217.000000000000
21
217.000000000000
0
LINE
8
LAYER2
62
2
10
217.000000000000
20
214.500000000000
11
217.000000000000
21
212.000000000000
0
LINE
8
LAYER2
62
2
10
217.000000000000
20
209.500000000000
11
217.000000000000
21
207.000000000000
0
LINE
8
LAYER2
62
2
10
217.000000000000
20
204.500000000000
11
217.000000000000
21
202.000000000000
0
LINE
8
LAYER2
62
2
10
217.000000000000
20
199.500000000000
11
217.000000000000
21
197.000000000000
0
LINE
8
LAYER2
62
2
10
217.000000000000
20
194.500000000000
11
217.000000000000
21
192.000000000000
0
LINE
8
LAYER2
62
2
10
217.000000000000
20
189.500000000000
11
217.000000000000
21
187.000000000000
0
LINE
8
LAYER2
62
2
10
217.000000000000
20
184.500000000000
11
217.000000000000
21
182.000000000000
0
LINE
8
LAYER2
62
2
10
217.000000000000
20
179.500000000000
11
217.000000000000
21
177.000000000000
0
LINE
8
LAYER2
62
2
10
217.000000000000
20
174.500000000000
11
217.000000000000
21
172.000000000000
0
LINE
8
LAYER2
62
2
10
217.000000000000
20
169.500000000000
11
215.000000000000
21
169.500000000000
0
LINE
8
LAYER2
62
2
10
215.000000000000
20
244.500000000000
11
217.000000000000
21
244.500000000000
0
LINE
8
LAYER2
62
2
10
240.000000000000
20
169.500000000000
11
240.000000000000
21
172.000000000000
0
LINE
8
LAYER2
62
2
10
240.000000000000
20
174.500000000000
11
240.000000000000
21
177.000000000000
0
LINE
8
LAYER2
62
2
10
240.000000000000
20
179.500000000000
11
240.000000000000
21
182.000000000000
0
LINE
8
LAYER2
62
2
10
240.000000000000
20
184.500000000000
11
240.000000000000
21
187.000000000000
0
LINE
8
LAYER2
62
2
10
240.000000000000
20
189.500000000000
11
240.000000000000
21
192.000000000000
0
LINE
8
LAYER2
62
2
10
240.000000000000
20
194.500000000000
11
240.000000000000
21
197.000000000000
0
LINE
8
LAYER2
62
2
10
240.000000000000
20
199.500000000000
11
240.000000000000
21
202.000000000000
0
LINE
8
LAYER2
62
2
10
240.000000000000
20
204.500000000000
11
240.000000000000
21
207.000000000000
0
LINE
8
LAYER2
62
2
10
240.000000000000
20
209.500000000000
11
240.000000000000
21
212.000000000000
0
LINE
8
LAYER2
62
2
10
240.000000000000
20
214.500000000000
11
240.000000000000
21
217.000000000000
0
LINE
8
LAYER2
62
2
10
240.000000000000
20
219.500000000000
11
240.000000000000
21
222.000000000000
0
LINE
8
LAYER2
62
2
10
240.000000000000
20
224.500000000000
11
240.000000000000
21
227.000000000000
0
LINE
8
LAYER2
62
2
10
240.000000000000
20
229.500000000000
11
240.000000000000
21
232.000000000000
0
LINE
8
LAYER2
62
2
10
240.000000000000
20
234.500000000000
11
240.000000000000
21
237.000000000000
0
LINE
8
LAYER2
62
2
10
240.000000000000
20
239.500000000000
11
240.000000000000
21
242.000000000000
0
LINE
8
LAYER2
62
2
10
242.000000000000
20
244.500000000000
11
242.000000000000
21
242.000000000000
0
LINE
8
LAYER2
62
2
10
242.000000000000
20
239.500000000000
11
242.000000000000
21
237.000000000000
0
LINE
8
LAYER2
62
2
10
242.000000000000
20
234.500000000000
11
242.000000000000
21
232.000000000000
0
LINE
8
LAYER2
62
2
10
242.000000000000
20
229.500000000000
11
242.000000000000
21
227.000000000000
0
LINE
8
LAYER2
62
2
10
242.000000000000
20
224.500000000000
11
242.000000000000
21
222.000000000000
0
LINE
8
LAYER2
62
2
10
242.000000000000
20
219.500000000000
11
242.000000000000
21
217.000000000000
0
LINE
8
LAYER2
62
2
10
242.000000000000
20
214.500000000000
11
242.000000000000
21
212.000000000000
0
LINE
8
LAYER2
62
2
10
242.000000000000
20
209.500000000000
11
242.000000000000
21
207.000000000000
0
LINE
8
LAYER2
62
2
10
242.000000000000
20
204.500000000000
11
242.000000000000
21
202.000000000000
0
LINE
8
LAYER2
62
2
10
242.000000000000
20
199.500000000000
11
242.000000000000
21
197.000000000000
0
LINE
8
LAYER2
62
2
10
242.000000000000
20
194.500000000000
11
242.000000000000
21
192.000000000000
0
LINE
8
LAYER2
62
2
10
242.000000000000
20
189.500000000000
11
242.000000000000
21
187.000000000000
0
LINE
8
LAYER2
62
2
10
242.000000000000
20
184.500000000000
11
242.000000000000
21
182.000000000000
0
LINE
8
LAYER2
62
2
10
242.000000000000
20
179.500000000000
11
242.000000000000
21
177.000000000000
0
LINE
8
LAYER2
62
2
10
242.000000000000
20
174.500000000000
11
242.000000000000
21
172.000000000000
0
LINE
8
LAYER2
62
2
10
242.000000000000
20
169.500000000000
11
240.000000000000
21
169.500000000000
0
LINE
8
LAYER2
62
2
10
240.000000000000
20
244.500000000000
11
242.000000000000
21
244.500000000000
0
LINE
8
LAYER3
62
3
10
10.500000000000
20
248.500000000000
11
10.500000000000
21
252.500000000000
0
LINE
8
LAYER3
62
3
10
10.500000000000
20
252.500000000000
11
265.000000000000
21
252.500000000000
0
LINE
8
LAYER3
62
3
10
265.000000000000
20
252.500000000000
11
265.000000000000
21
248.500000000000
0
LINE
8
LAYER3
62
3
10
265.000000000000
20
248.500000000000
11
10.500000000000
21
248.500000000000
0
LINE
8
LAYER3
62
3
10
14.500000000000
20
20.000000000000
11
10.500000000000
21
20.000000000000
0
LINE
8
LAYER3
62
3
10
10.500000000000
20
20.000000000000
11
10.500000000000
21
252.500000000000
0
LINE
8
LAYER3
62
3
10
10.500000000000
20
252.500000000000
11
14.500000000000
21
252.500000000000
0
LINE
8
LAYER3
62
3
10
14.500000000000
20
252.500000000000
11
14.500000000000
21
20.000000000000
0
LINE
8
LAYER3
62
3
10
103.500000000000
20
161.500000000000
11
103.500000000000
21
165.500000000000
0
LINE
8
LAYER3
62
3
10
103.500000000000
20
165.500000000000
11
257.000000000000
21
165.500000000000
0
LINE
8
LAYER3
62
3
10
257.000000000000
20
165.500000000000
11
257.000000000000
21
161.500000000000
0
LINE
8
LAYER3
62
3
10
257.000000000000
20
161.500000000000
11
103.500000000000
21
161.500000000000
0
LINE
8
LAYER3
62
3
10
101.500000000000
20
28.000000000000
11
97.500000000000
21
28.000000000000
0
LINE
8
LAYER3
62
3
10
97.500000000000
20
28.000000000000
11
97.500000000000
21
159.500000000000
0
LINE
8
LAYER3
62
3
10
97.500000000000
20
159.500000000000
11
101.500000000000
21
159.500000000000
0
LINE
8
LAYER3
62
3
10
101.500000000000
20
159.500000000000
11
101.500000000000
21
28.000000000000
0
LINE
8
LAYER4
62
4
10
257.000000000000
20
159.500000000000
11
257.000000000000
21
167.500000000000
0
LINE
8
LAYER4
62
4
10
257.000000000000
20
167.500000000000
11
265.000000000000
21
167.500000000000
0
LINE
8
LAYER4
62
4
10
265.000000000000
20
167.500000000000
11
265.000000000000
21
159.500000000000
0
LINE
8
LAYER4
62
4
10
265.000000000000
20
159.500000000000
11
257.000000000000
21
159.500000000000
0
LINE
8
LAYER4
62
4
10
103.500000000000
20
159.500000000000
11
95.500000000000
21
159.500000000000
0
LINE
8
LAYER4
62
4
10
95.500000000000
20
159.500000000000
11
95.500000000000
21
167.500000000000
0
LINE
8
LAYER4
62
4
10
95.500000000000
20
167.500000000000
11
103.500000000000
21
167.500000000000
0
LINE
8
LAYER4
62
4
10
103.500000000000
20
167.500000000000
11
103.500000000000
21
159.500000000000
0
LINE
8
LAYER4
62
4
10
103.500000000000
20
20.000000000000
11
95.500000000000
21
20.000000000000
0
LINE
8
LAYER4
62
4
10
95.500000000000
20
20.000000000000
11
95.500000000000
21
28.000000000000
0
LINE
8
LAYER4
62
4
10
95.500000000000
20
28.000000000000
11
103.500000000000
21
28.000000000000
0
LINE
8
LAYER4
62
4
10
103.500000000000
20
28.000000000000
11
103.500000000000
21
20.000000000000
0
LINE
8
LAYER5
62
5
10
13.500000000000
20
245.000000000000
11
13.500000000000
21
249.000000000000
0
LINE
8
LAYER5
62
5
10
13.500000000000
20
249.000000000000
11
265.000000000000
21
249.000000000000
0
LINE
8
LAYER5
62
5
10
265.000000000000
20
249.000000000000
11
265.000000000000
21
245.000000000000
0
LINE
8
LAYER5
62
5
10
265.000000000000
20
245.000000000000
11
13.500000000000
21
245.000000000000
0
LINE
8
LAYER5
62
5
10
18.000000000000
20
20.000000000000
11
14.000000000000
21
20.000000000000
0
LINE
8
LAYER5
62
5
10
14.000000000000
20
20.000000000000
11
14.000000000000
21
245.000000000000
0
LINE
8
LAYER5
62
5
10
14.000000000000
20
245.000000000000
11
18.000000000000
21
245.000000000000
0
LINE
8
LAYER5
62
5
10
18.000000000000
20
245.000000000000
11
18.000000000000
21
20.000000000000
0
LINE
8
LAYER5
62
5
10
103.500000000000
20
161.500000000000
11
103.500000000000
21
165.500000000000
0
LINE
8
LAYER5
62
5
10
103.500000000000
20
165.500000000000
11
257.000000000000
21
165.500000000000
0
LINE
8
LAYER5
62
5
10
257.000000000000
20
165.500000000000
11
257.000000000000
21
161.500000000000
0
LINE
8
LAYER5
62
5
10
257.000000000000
20
161.500000000000
11
103.500000000000
21
161.500000000000
0
LINE
8
LAYER5
62
5
10
101.500000000000
20
28.000000000000
11
97.500000000000
21
28.000000000000
0
LINE
8
LAYER5
62
5
10
97.500000000000
20
28.000000000000
11
97.500000000000
21
159.500000000000
0
LINE
8
LAYER5
62
5
10
97.500000000000
20
159.500000000000
11
101.500000000000
21
159.500000000000
0
LINE
8
LAYER5
62
5
10
101.500000000000
20
159.500000000000
11
101.500000000000
21
28.000000000000
0
LINE
8
LAYER6
62
6
10
247.684616088867
20
157.500000000000
11
247.684616088867
21
161.500000000000
0
LINE
8
LAYER6
62
6
10
247.684616088867
20
161.500000000000
11
244.984615325928
21
161.500000000000
0
LINE
8
LAYER6
62
6
10
244.984615325928
20
161.500000000000
11
244.984615325928
21
157.500000000000
0
LINE
8
LAYER6
62
6
10
244.984615325928
20
157.500000000000
11
247.684616088867
21
157.500000000000
0
LINE
8
LAYER6
62
6
10
235.669231414795
20
157.500000000000
11
235.669231414795
21
161.500000000000
0
LINE
8
LAYER6
62
6
10
235.669231414795
20
161.500000000000
11
232.969230651855
21
161.500000000000
0
LINE
8
LAYER6
62
6
10
232.969230651855
20
161.500000000000
11
232.969230651855
21
157.500000000000
0
LINE
8
LAYER6
62
6
10
232.969230651855
20
157.500000000000
11
235.669231414795
21
157.500000000000
0
LINE
8
LAYER6
62
6
10
223.653846740723
20
157.500000000000
11
223.653846740723
21
161.500000000000
0
LINE
8
LAYER6
62
6
10
223.653846740723
20
161.500000000000
11
220.953845977783
21
161.500000000000
0
LINE
8
LAYER6
62
6
10
220.953845977783
20
161.500000000000
11
220.953845977783
21
157.500000000000
0
LINE
8
LAYER6
62
6
10
220.953845977783
20
157.500000000000
11
223.653846740723
21
157.500000000000
0
LINE
8
LAYER6
62
6
10
211.638462066650
20
157.500000000000
11
211.638462066650
21
161.500000000000
0
LINE
8
LAYER6
62
6
10
211.638462066650
20
161.500000000000
11
208.938461303711
21
161.500000000000
0
LINE
8
LAYER6
62
6
10
208.938461303711
20
161.500000000000
11
208.938461303711
21
157.500000000000
0
LINE
8
LAYER6
62
6
10
208.938461303711
20
157.500000000000
11
211.638462066650
21
157.500000000000
0
LINE
8
LAYER6
62
6
10
199.623077392578
20
157.500000000000
11
199.623077392578
21
161.500000000000
0
LINE
8
LAYER6
62
6
10
199.623077392578
20
161.500000000000
11
196.923080444336
21
161.500000000000
0
LINE
8
LAYER6
62
6
10
196.923080444336
20
161.500000000000
11
196.923080444336
21
157.500000000000
0
LINE
8
LAYER6
62
6
10
196.923080444336
20
157.500000000000
11
199.623077392578
21
157.500000000000
0
LINE
8
LAYER6
62
6
10
187.607688903809
20
157.500000000000
11
187.607688903809
21
161.500000000000
0
LINE
8
LAYER6
62
6
10
187.607688903809
20
161.500000000000
11
184.907691955566
21
161.500000000000
0
LINE
8
LAYER6
62
6
10
184.907691955566
20
161.500000000000
11
184.907691955566
21
157.500000000000
0
LINE
8
LAYER6
62
6
10
184.907691955566
20
157.500000000000
11
187.607688903809
21
157.500000000000
0
LINE
8
LAYER6
62
6
10
175.592308044434
20
157.500000000000
11
175.592308044434
21
161.500000000000
0
LINE
8
LAYER6
62
6
10
175.592308044434
20
161.500000000000
11
172.892311096191
21
161.500000000000
0
LINE
8
LAYER6
62
6
10
172.892311096191
20
161.500000000000
11
172.892311096191
21
157.500000000000
0
LINE
8
LAYER6
62
6
10
172.892311096191
20
157.500000000000
11
175.592308044434
21
157.500000000000
0
LINE
8
LAYER6
62
6
10
163.576919555664
20
157.500000000000
11
163.576919555664
21
161.500000000000
0
LINE
8
LAYER6
62
6
10
163.576919555664
20
161.500000000000
11
160.876922607422
21
161.500000000000
0
LINE
8
LAYER6
62
6
10
160.876922607422
20
161.500000000000
11
160.876922607422
21
157.500000000000
0
LINE
8
LAYER6
62
6
10
160.876922607422
20
157.500000000000
11
163.576919555664
21
157.500000000000
0
LINE
8
LAYER6
62
6
10
151.561538696289
20
157.500000000000
11
151.561538696289
21
161.500000000000
0
LINE
8
LAYER6
62
6
10
151.561538696289
20
161.500000000000
11
148.861541748047
21
161.500000000000
0
LINE
8
LAYER6
62
6
10
148.861541748047
20
161.500000000000
11
148.861541748047
21
157.500000000000
0
LINE
8
LAYER6
62
6
10
148.861541748047
20
157.500000000000
11
151.561538696289
21
157.500000000000
0
LINE
8
LAYER6
62
6
10
139.546150207520
20
157.500000000000
11
139.546150207520
21
161.500000000000
0
LINE
8
LAYER6
62
6
10
139.546150207520
20
161.500000000000
11
136.846160888672
21
161.500000000000
0
LINE
8
LAYER6
62
6
10
136.846160888672
20
161.500000000000
11
136.846160888672
21
157.500000000000
0
LINE
8
LAYER6
62
6
10
136.846160888672
20
157.500000000000
11
139.546150207520
21
157.500000000000
0
LINE
8
LAYER6
62
6
10
127.530761718750
20
157.500000000000
11
127.530761718750
21
161.500000000000
0
LINE
8
LAYER6
62
6
10
127.530761718750
20
161.500000000000
11
124.830764770508
21
161.500000000000
0
LINE
8
LAYER6
62
6
10
124.830764770508
20
161.500000000000
11
124.830764770508
21
157.500000000000
0
LINE
8
LAYER6
62
6
10
124.830764770508
20
157.500000000000
11
127.530761718750
21
157.500000000000
0
LINE
8
LAYER6
62
6
10
115.515380859375
20
157.500000000000
11
115.515380859375
21
161.500000000000
0
LINE
8
LAYER6
62
6
10
115.515380859375
20
161.500000000000
11
112.815383911133
21
161.500000000000
0
LINE
8
LAYER6
62
6
10
112.815383911133
20
161.500000000000
11
112.815383911133
21
157.500000000000
0
LINE
8
LAYER6
62
6
10
112.815383911133
20
157.500000000000
11
115.515380859375
21
157.500000000000
0
LINE
8
LAYER6
62
6
10
105.500000000000
20
150.000000000000
11
101.500000000000
21
150.000000000000
0
LINE
8
LAYER6
62
6
10
101.500000000000
20
150.000000000000
11
101.500000000000
21
147.300003051758
0
LINE
8
LAYER6
62
6
10
101.500000000000
20
147.300003051758
11
105.500000000000
21
147.300003051758
0
LINE
8
LAYER6
62
6
10
105.500000000000
20
147.300003051758
11
105.500000000000
21
150.000000000000
0
LINE
8
LAYER6
62
6
10
105.500000000000
20
137.800003051758
11
101.500000000000
21
137.800003051758
0
LINE
8
LAYER6
62
6
10
101.500000000000
20
137.800003051758
11
101.500000000000
21
135.099998474121
0
LINE
8
LAYER6
62
6
10
101.500000000000
20
135.099998474121
11
105.500000000000
21
135.099998474121
0
LINE
8
LAYER6
62
6
10
105.500000000000
20
135.099998474121
11
105.500000000000
21
137.800003051758
0
LINE
8
LAYER6
62
6
10
105.500000000000
20
125.599998474121
11
101.500000000000
21
125.599998474121
0
LINE
8
LAYER6
62
6
10
101.500000000000
20
125.599998474121
11
101.500000000000
21
122.899993896484
0
LINE
8
LAYER6
62
6
10
101.500000000000
20
122.899993896484
11
105.500000000000
21
122.899993896484
0
LINE
8
LAYER6
62
6
10
105.500000000000
20
122.899993896484
11
105.500000000000
21
125.599998474121
0
LINE
8
LAYER6
62
6
10
105.500000000000
20
113.400009155273
11
101.500000000000
21
113.400009155273
0
LINE
8
LAYER6
62
6
10
101.500000000000
20
113.400009155273
11
101.500000000000
21
110.699996948242
0
LINE
8
LAYER6
62
6
10
101.500000000000
20
110.699996948242
11
105.500000000000
21
110.699996948242
0
LINE
8
LAYER6
62
6
10
105.500000000000
20
110.699996948242
11
105.500000000000
21
113.400009155273
0
LINE
8
LAYER6
62
6
10
105.500000000000
20
101.199996948242
11
101.500000000000
21
101.199996948242
0
LINE
8
LAYER6
62
6
10
101.500000000000
20
101.199996948242
11
101.500000000000
21
98.500000000000
0
LINE
8
LAYER6
62
6
10
101.500000000000
20
98.500000000000
11
105.500000000000
21
98.500000000000
0
LINE
8
LAYER6
62
6
10
105.500000000000
20
98.500000000000
11
105.500000000000
21
101.199996948242
0
LINE
8
LAYER6
62
6
10
105.500000000000
20
89.000000000000
11
101.500000000000
21
89.000000000000
0
LINE
8
LAYER6
62
6
10
101.500000000000
20
89.000000000000
11
101.500000000000
21
86.300003051758
0
LINE
8
LAYER6
62
6
10
101.500000000000
20
86.300003051758
11
105.500000000000
21
86.300003051758
0
LINE
8
LAYER6
62
6
10
105.500000000000
20
86.300003051758
11
105.500000000000
21
89.000000000000
0
LINE
8
LAYER6
62
6
10
105.500000000000
20
76.800003051758
11
101.500000000000
21
76.800003051758
0
LINE
8
LAYER6
62
6
10
101.500000000000
20
76.800003051758
11
101.500000000000
21
74.100006103516
0
LINE
8
LAYER6
62
6
10
101.500000000000
20
74.100006103516
11
105.500000000000
21
74.100006103516
0
LINE
8
LAYER6
62
6
10
105.500000000000
20
74.100006103516
11
105.500000000000
21
76.800003051758
0
LINE
8
LAYER6
62
6
10
105.500000000000
20
64.600006103516
11
101.500000000000
21
64.600006103516
0
LINE
8
LAYER6
62
6
10
101.500000000000
20
64.600006103516
11
101.500000000000
21
61.900009155273
0
LINE
8
LAYER6
62
6
10
101.500000000000
20
61.900009155273
11
105.500000000000
21
61.900009155273
0
LINE
8
LAYER6
62
6
10
105.500000000000
20
61.900009155273
11
105.500000000000
21
64.600006103516
0
LINE
8
LAYER6
62
6
10
105.500000000000
20
52.400009155273
11
101.500000000000
21
52.400009155273
0
LINE
8
LAYER6
62
6
10
101.500000000000
20
52.400009155273
11
101.500000000000
21
49.699996948242
0
LINE
8
LAYER6
62
6
10
101.500000000000
20
49.699996948242
11
105.500000000000
21
49.699996948242
0
LINE
8
LAYER6
62
6
10
105.500000000000
20
49.699996948242
11
105.500000000000
21
52.400009155273
0
LINE
8
LAYER6
62
6
10
105.500000000000
20
40.199996948242
11
101.500000000000
21
40.199996948242
0
LINE
8
LAYER6
62
6
10
101.500000000000
20
40.199996948242
11
101.500000000000
21
37.500000000000
0
LINE
8
LAYER6
62
6
10
101.500000000000
20
37.500000000000
11
105.500000000000
21
37.500000000000
0
LINE
8
LAYER6
62
6
10
105.500000000000
20
37.500000000000
11
105.500000000000
21
40.199996948242
0
LINE
8
LAYER7
62
7
10
265.000000000000
20
253.000000000000
11
265.000000000000
21
63.000000000000
0
LINE
8
LAYER7
62
7
10
265.000000000000
20
63.000000000000
11
10.000000000000
21
63.000000000000
0
LINE
8
LAYER7
62
7
10
10.000000000000
20
63.000000000000
11
10.000000000000
21
253.000000000000
0
LINE
8
LAYER7
62
7
10
10.000000000000
20
253.000000000000
11
265.000000000000
21
253.000000000000
0
LINE
8
LAYER9
62
8
10
58.286437988281
20
21.000000000000
11
58.286437988281
21
179.713562011719
0
ARC
8
LAYER9
62
8
10
83.286437988281
20
179.713562011719
40
25.000000000000
50
90.000000000000
51
180.000000000000
0
LINE
8
LAYER9
62
8
10
83.286437988281
20
204.713562011719
11
265.000000000000
21
204.713562011719
0
LINE
8
LAYER14
62
8
10
43.511437988281
20
36.400004632448
11
43.848937988281
21
37.000004632448
0
LINE
8
LAYER14
62
8
10
43.848937988281
20
37.000004632448
11
43.848937988281
21
35.000004632448
0
LINE
8
LAYER14
62
8
10
43.623937988281
20
35.000004632448
11
44.073937988281
21
35.000004632448
0
LINE
8
LAYER14
62
8
10
43.286437988281
20
61.700004632448
11
43.455187988281
21
62.000004632448
0
LINE
8
LAYER14
62
8
10
43.455187988281
20
62.000004632448
11
44.242687988281
21
62.000004632448
0
LINE
8
LAYER14
62
8
10
44.242687988281
20
62.000004632448
11
44.411437988281
21
61.700004632448
0
LINE
8
LAYER14
62
8
10
44.411437988281
20
61.700004632448
11
44.411437988281
21
61.400004632448
0
LINE
8
LAYER14
62
8
10
44.411437988281
20
61.400004632448
11
43.286437988281
21
60.300004632448
0
LINE
8
LAYER14
62
8
10
43.286437988281
20
60.300004632448
11
43.286437988281
21
60.000004632448
0
LINE
8
LAYER14
62
8
10
43.286437988281
20
60.000004632448
11
44.411437988281
21
60.000004632448
0
LINE
8
LAYER14
62
8
10
44.411437988281
20
60.000004632448
11
44.411437988281
21
60.300004632448
0
LINE
8
LAYER14
62
8
10
43.286437988281
20
86.800004632448
11
43.398937988281
21
87.000004632448
0
LINE
8
LAYER14
62
8
10
43.398937988281
20
87.000004632448
11
44.298937988281
21
87.000004632448
0
LINE
8
LAYER14
62
8
10
44.298937988281
20
87.000004632448
11
44.411437988281
21
86.800004632448
0
LINE
8
LAYER14
62
8
10
44.411437988281
20
86.800004632448
11
44.411437988281
21
86.400004632448
0
LINE
8
LAYER14
62
8
10
44.411437988281
20
86.400004632448
11
44.298937988281
21
86.200004632448
0
LINE
8
LAYER14
62
8
10
44.298937988281
20
86.200004632448
11
43.623937988281
21
86.200004632448
0
LINE
8
LAYER14
62
8
10
44.298937988281
20
86.200004632448
11
44.411437988281
21
86.000004632448
0
LINE
8
LAYER14
62
8
10
44.411437988281
20
86.000004632448
11
44.411437988281
21
85.200004632448
0
LINE
8
LAYER14
62
8
10
44.411437988281
20
85.200004632448
11
44.298937988281
21
85.000004632448
0
LINE
8
LAYER14
62
8
10
44.298937988281
20
85.000004632448
11
43.398937988281
21
85.000004632448
0
LINE
8
LAYER14
62
8
10
43.398937988281
20
85.000004632448
11
43.286437988281
21
85.200004632448
0
LINE
8
LAYER14
62
8
10
43.286437988281
20
112.000004632448
11
43.286437988281
21
111.200004632448
0
LINE
8
LAYER14
62
8
10
43.286437988281
20
111.200004632448
11
44.411437988281
21
111.200004632448
0
LINE
8
LAYER14
62
8
10
44.411437988281
20
112.000004632448
11
44.411437988281
21
110.000004632448
0
LINE
8
LAYER14
62
8
10
44.411437988281
20
137.000004632448
11
43.286437988281
21
137.000004632448
0
LINE
8
LAYER14
62
8
10
43.286437988281
20
137.000004632448
11
43.286437988281
21
136.200004632448
0
LINE
8
LAYER14
62
8
10
43.286437988281
20
136.200004632448
11
44.242687988281
21
136.200004632448
0
LINE
8
LAYER14
62
8
10
44.242687988281
20
136.200004632448
11
44.411437988281
21
135.900004632448
0
LINE
8
LAYER14
62
8
10
44.411437988281
20
135.900004632448
11
44.411437988281
21
135.300004632448
0
LINE
8
LAYER14
62
8
10
44.411437988281
20
135.300004632448
11
44.242687988281
21
135.000004632448
0
LINE
8
LAYER14
62
8
10
44.242687988281
20
135.000004632448
11
43.455187988281
21
135.000004632448
0
LINE
8
LAYER14
62
8
10
43.455187988281
20
135.000004632448
11
43.286437988281
21
135.300004632448
0
LINE
8
LAYER14
62
8
10
44.411437988281
20
162.149693207804
11
44.242687988281
21
162.149693207804
0
LINE
8
LAYER14
62
8
10
44.242687988281
20
162.149693207804
11
43.286437988281
21
161.649693207804
0
LINE
8
LAYER14
62
8
10
43.286437988281
20
161.649693207804
11
43.286437988281
21
160.449693207804
0
LINE
8
LAYER14
62
8
10
43.286437988281
20
160.449693207804
11
43.455187988281
21
160.149693207804
0
LINE
8
LAYER14
62
8
10
43.455187988281
20
160.149693207804
11
44.242687988281
21
160.149693207804
0
LINE
8
LAYER14
62
8
10
44.242687988281
20
160.149693207804
11
44.411437988281
21
160.449693207804
0
LINE
8
LAYER14
62
8
10
44.411437988281
20
160.449693207804
11
44.411437988281
21
161.049693207804
0
LINE
8
LAYER14
62
8
10
44.411437988281
20
161.049693207804
11
44.242687988281
21
161.349693207804
0
LINE
8
LAYER14
62
8
10
44.242687988281
20
161.349693207804
11
43.286437988281
21
161.349693207804
0
LINE
8
LAYER14
62
8
10
44.291292680723
20
190.323031268773
11
44.291292680723
21
190.623031268773
0
LINE
8
LAYER14
62
8
10
44.291292680723
20
190.623031268773
11
45.416292680723
21
190.623031268773
0
LINE
8
LAYER14
62
8
10
45.416292680723
20
190.623031268773
11
45.416292680723
21
189.923031268773
0
LINE
8
LAYER14
62
8
10
45.416292680723
20
189.923031268773
11
44.853792680723
21
189.423031268773
0
LINE
8
LAYER14
62
8
10
44.853792680723
20
189.423031268773
11
44.853792680723
21
188.623031268773
0
LINE
8
LAYER14
62
8
10
71.269221989294
20
217.812147716067
11
71.100471989294
21
218.112147716067
0
LINE
8
LAYER14
62
8
10
71.100471989294
20
218.112147716067
11
71.100471989294
21
218.512147716066
0
LINE
8
LAYER14
62
8
10
71.100471989294
20
218.512147716066
11
71.269221989294
21
218.812147716067
0
LINE
8
LAYER14
62
8
10
71.269221989294
20
218.812147716067
11
72.056721989294
21
218.812147716067
0
LINE
8
LAYER14
62
8
10
72.056721989294
20
218.812147716067
11
72.225471989294
21
218.512147716066
0
LINE
8
LAYER14
62
8
10
72.225471989294
20
218.512147716066
11
72.225471989294
21
218.112147716067
0
LINE
8
LAYER14
62
8
10
72.225471989294
20
218.112147716067
11
72.056721989294
21
217.812147716067
0
LINE
8
LAYER14
62
8
10
72.056721989294
20
217.812147716067
11
71.269221989294
21
217.812147716067
0
LINE
8
LAYER14
62
8
10
71.269221989294
20
218.812147716067
11
71.100471989294
21
219.112147716067
0
LINE
8
LAYER14
62
8
10
71.100471989294
20
219.112147716067
11
71.100471989294
21
219.512147716066
0
LINE
8
LAYER14
62
8
10
71.100471989294
20
219.512147716066
11
71.269221989294
21
219.812147716067
0
LINE
8
LAYER14
62
8
10
71.269221989294
20
219.812147716067
11
72.056721989294
21
219.812147716067
0
LINE
8
LAYER14
62
8
10
72.056721989294
20
219.812147716067
11
72.225471989294
21
219.512147716066
0
LINE
8
LAYER14
62
8
10
72.225471989294
20
219.512147716066
11
72.225471989294
21
219.112147716067
0
LINE
8
LAYER14
62
8
10
72.225471989294
20
219.112147716067
11
72.056721989294
21
218.812147716067
0
LINE
8
LAYER14
62
8
10
101.000000000000
20
220.013562011719
11
101.168750000000
21
219.713562011719
0
LINE
8
LAYER14
62
8
10
101.168750000000
20
219.713562011719
11
101.956250000000
21
219.713562011719
0
LINE
8
LAYER14
62
8
10
101.956250000000
20
219.713562011719
11
102.125000000000
21
220.013562011719
0
LINE
8
LAYER14
62
8
10
102.125000000000
20
220.013562011719
11
102.125000000000
21
221.413562011719
0
LINE
8
LAYER14
62
8
10
102.125000000000
20
221.413562011719
11
101.956250000000
21
221.713562011719
0
LINE
8
LAYER14
62
8
10
101.956250000000
20
221.713562011719
11
101.168750000000
21
221.713562011719
0
LINE
8
LAYER14
62
8
10
101.168750000000
20
221.713562011719
11
101.000000000000
21
221.413562011719
0
LINE
8
LAYER14
62
8
10
101.000000000000
20
221.413562011719
11
101.000000000000
21
221.013562011719
0
LINE
8
LAYER14
62
8
10
101.000000000000
20
221.013562011719
11
101.168750000000
21
220.713562011719
0
LINE
8
LAYER14
62
8
10
101.168750000000
20
220.713562011719
11
102.125000000000
21
220.713562011719
0
LINE
8
LAYER14
62
8
10
126.225000000000
20
221.113562011719
11
126.562500000000
21
221.713562011719
0
LINE
8
LAYER14
62
8
10
126.562500000000
20
221.713562011719
11
126.562500000000
21
219.713562011719
0
LINE
8
LAYER14
62
8
10
126.337500000000
20
219.713562011719
11
126.787500000000
21
219.713562011719
0
LINE
8
LAYER14
62
8
10
127.781250000000
20
219.713562011719
11
128.343750000000
21
219.713562011719
0
LINE
8
LAYER14
62
8
10
128.343750000000
20
219.713562011719
11
128.625000000000
21
220.213562011719
0
LINE
8
LAYER14
62
8
10
128.625000000000
20
220.213562011719
11
128.625000000000
21
221.213562011719
0
LINE
8
LAYER14
62
8
10
128.625000000000
20
221.213562011719
11
128.343750000000
21
221.713562011719
0
LINE
8
LAYER14
62
8
10
128.343750000000
20
221.713562011719
11
127.781250000000
21
221.713562011719
0
LINE
8
LAYER14
62
8
10
127.781250000000
20
221.713562011719
11
127.500000000000
21
221.213562011719
0
LINE
8
LAYER14
62
8
10
127.500000000000
20
221.213562011719
11
127.500000000000
21
220.213562011719
0
LINE
8
LAYER14
62
8
10
127.500000000000
20
220.213562011719
11
127.781250000000
21
219.713562011719
0
LINE
8
LAYER14
62
8
10
151.225000000000
20
221.113562011719
11
151.562500000000
21
221.713562011719
0
LINE
8
LAYER14
62
8
10
151.562500000000
20
221.713562011719
11
151.562500000000
21
219.713562011719
0
LINE
8
LAYER14
62
8
10
151.337500000000
20
219.713562011719
11
151.787500000000
21
219.713562011719
0
LINE
8
LAYER14
62
8
10
152.725000000000
20
221.113562011719
11
153.062500000000
21
221.713562011719
0
LINE
8
LAYER14
62
8
10
153.062500000000
20
221.713562011719
11
153.062500000000
21
219.713562011719
0
LINE
8
LAYER14
62
8
10
152.837500000000
20
219.713562011719
11
153.287500000000
21
219.713562011719
0
LINE
8
LAYER14
62
8
10
176.225000000000
20
221.113562011719
11
176.562500000000
21
221.713562011719
0
LINE
8
LAYER14
62
8
10
176.562500000000
20
221.713562011719
11
176.562500000000
21
219.713562011719
0
LINE
8
LAYER14
62
8
10
176.337500000000
20
219.713562011719
11
176.787500000000
21
219.713562011719
0
LINE
8
LAYER14
62
8
10
177.500000000000
20
221.413562011719
11
177.668750000000
21
221.713562011719
0
LINE
8
LAYER14
62
8
10
177.668750000000
20
221.713562011719
11
178.456250000000
21
221.713562011719
0
LINE
8
LAYER14
62
8
10
178.456250000000
20
221.713562011719
11
178.625000000000
21
221.413562011719
0
LINE
8
LAYER14
62
8
10
178.625000000000
20
221.413562011719
11
178.625000000000
21
221.113562011719
0
LINE
8
LAYER14
62
8
10
178.625000000000
20
221.113562011719
11
177.500000000000
21
220.013562011719
0
LINE
8
LAYER14
62
8
10
177.500000000000
20
220.013562011719
11
177.500000000000
21
219.713562011719
0
LINE
8
LAYER14
62
8
10
177.500000000000
20
219.713562011719
11
178.625000000000
21
219.713562011719
0
LINE
8
LAYER14
62
8
10
178.625000000000
20
219.713562011719
11
178.625000000000
21
220.013562011719
0
LINE
8
LAYER14
62
8
10
201.225000000000
20
221.113562011719
11
201.562500000000
21
221.713562011719
0
LINE
8
LAYER14
62
8
10
201.562500000000
20
221.713562011719
11
201.562500000000
21
219.713562011719
0
LINE
8
LAYER14
62
8
10
201.337500000000
20
219.713562011719
11
201.787500000000
21
219.713562011719
0
LINE
8
LAYER14
62
8
10
202.500000000000
20
221.513562011719
11
202.612500000000
21
221.713562011719
0
LINE
8
LAYER14
62
8
10
202.612500000000
20
221.713562011719
11
203.512500000000
21
221.713562011719
0
LINE
8
LAYER14
62
8
10
203.512500000000
20
221.713562011719
11
203.625000000000
21
221.513562011719
0
LINE
8
LAYER14
62
8
10
203.625000000000
20
221.513562011719
11
203.625000000000
21
221.113562011719
0
LINE
8
LAYER14
62
8
10
203.625000000000
20
221.113562011719
11
203.512500000000
21
220.913562011719
0
LINE
8
LAYER14
62
8
10
203.512500000000
20
220.913562011719
11
202.837500000000
21
220.913562011719
0
LINE
8
LAYER14
62
8
10
203.512500000000
20
220.913562011719
11
203.625000000000
21
220.713562011719
0
LINE
8
LAYER14
62
8
10
203.625000000000
20
220.713562011719
11
203.625000000000
21
219.913562011719
0
LINE
8
LAYER14
62
8
10
203.625000000000
20
219.913562011719
11
203.512500000000
21
219.713562011719
0
LINE
8
LAYER14
62
8
10
203.512500000000
20
219.713562011719
11
202.612500000000
21
219.713562011719
0
LINE
8
LAYER14
62
8
10
202.612500000000
20
219.713562011719
11
202.500000000000
21
219.913562011719
0
LINE
8
LAYER14
62
8
10
226.225000000000
20
221.113562011719
11
226.562500000000
21
221.713562011719
0
LINE
8
LAYER14
62
8
10
226.562500000000
20
221.713562011719
11
226.562500000000
21
219.713562011719
0
LINE
8
LAYER14
62
8
10
226.337500000000
20
219.713562011719
11
226.787500000000
21
219.713562011719
0
LINE
8
LAYER14
62
8
10
227.500000000000
20
221.713562011719
11
227.500000000000
21
220.913562011719
0
LINE
8
LAYER14
62
8
10
227.500000000000
20
220.913562011719
11
228.625000000000
21
220.913562011719
0
LINE
8
LAYER14
62
8
10
228.625000000000
20
221.713562011719
11
228.625000000000
21
219.713562011719
0
LINE
8
LAYER14
62
8
10
251.225000000000
20
221.113562011719
11
251.562500000000
21
221.713562011719
0
LINE
8
LAYER14
62
8
10
251.562500000000
20
221.713562011719
11
251.562500000000
21
219.713562011719
0
LINE
8
LAYER14
62
8
10
251.337500000000
20
219.713562011719
11
251.787500000000
21
219.713562011719
0
LINE
8
LAYER14
62
8
10
253.625000000000
20
221.713562011719
11
252.500000000000
21
221.713562011719
0
LINE
8
LAYER14
62
8
10
252.500000000000
20
221.713562011719
11
252.500000000000
21
220.913562011719
0
LINE
8
LAYER14
62
8
10
252.500000000000
20
220.913562011719
11
253.456250000000
21
220.913562011719
0
LINE
8
LAYER14
62
8
10
253.456250000000
20
220.913562011719
11
253.625000000000
21
220.613562011719
0
LINE
8
LAYER14
62
8
10
253.625000000000
20
220.613562011719
11
253.625000000000
21
220.013562011719
0
LINE
8
LAYER14
62
8
10
253.625000000000
20
220.013562011719
11
253.456250000000
21
219.713562011719
0
LINE
8
LAYER14
62
8
10
253.456250000000
20
219.713562011719
11
252.668750000000
21
219.713562011719
0
LINE
8
LAYER14
62
8
10
252.668750000000
20
219.713562011719
11
252.500000000000
21
220.013562011719
0
LINE
8
LAYER15
62
8
10
10.000000000000
20
0.000000000000
11
10.000000000000
21
253.000000000000
0
LINE
8
LAYER15
62
8
10
10.000000000000
20
253.000000000000
11
0.000000000000
21
263.000000000000
0
LINE
8
LAYER15
62
8
10
0.000000000000
20
263.000000000000
11
0.000000000000
21
0.000000000000
0
LINE
8
LAYER15
62
8
10
0.000000000000
20
0.000000000000
11
10.000000000000
21
0.000000000000
0
LINE
8
LAYER15
62
8
10
10.000000000000
20
253.000000000000
11
265.000000000000
21
253.000000000000
0
LINE
8
LAYER15
62
8
10
265.000000000000
20
253.000000000000
11
265.000000000000
21
263.000000000000
0
LINE
8
LAYER15
62
8
10
265.000000000000
20
263.000000000000
11
0.000000000000
21
263.000000000000
0
LINE
8
LAYER15
62
8
10
0.000000000000
20
263.000000000000
11
10.000000000000
21
253.000000000000
0
ENDSEC
0
EOF
