0
SECTION
2
HEADER
0
ENDSEC
0
SECTION
2
TABLES
0
TABLE
2
LTYPE
70
1
0
LTYPE
2
CONTINUOUS
70
64
3
Solid line
72
65
73
0
40
0
0
ENDTAB
0
TABLE
2
LAYER
70
20
0
LAYER
2
COMPASS
70
0
62
1
6
CONTINUOUS
0
LAYER
2
LAYER1
70
0
62
1
6
CONTINUOUS
0
LAYER
2
LAYER2
70
0
62
1
6
CONTINUOUS
0
LAYER
2
LAYER3
70
0
62
1
6
CONTINUOUS
0
LAYER
2
LAYER4
70
0
62
1
6
CONTINUOUS
0
LAYER
2
LAYER5
70
0
62
1
6
CONTINUOUS
0
LAYER
2
LAYER6
70
0
62
1
6
CONTINUOUS
0
LAYER
2
LAYER7
70
0
62
1
6
CONTINUOUS
0
LAYER
2
LAYER8
70
0
62
1
6
CONTINUOUS
0
LAYER
2
LAYER9
70
0
62
1
6
CONTINUOUS
0
LAYER
2
LAYER10
70
0
62
1
6
CONTINUOUS
0
LAYER
2
LAYER11
70
0
62
1
6
CONTINUOUS
0
LAYER
2
LAYER12
70
0
62
1
6
CONTINUOUS
0
LAYER
2
LAYER13
70
0
62
1
6
CONTINUOUS
0
LAYER
2
LAYER14
70
0
62
1
6
CONTINUOUS
0
LAYER
2
LAYER15
70
0
62
1
6
CONTINUOUS
0
LAYER
2
LAYER16
70
0
62
1
6
CONTINUOUS
0
LAYER
2
LAYER17
70
0
62
1
6
CONTINUOUS
0
LAYER
2
LAYER18
70
0
62
1
6
CONTINUOUS
0
LAYER
2
LAYER19
70
0
62
1
6
CONTINUOUS
0
ENDTAB
0
ENDSEC
0
SECTION
2
BLOCKS
0
ENDSEC
0
SECTION
2
ENTITIES
0
LINE
8
LAYER1
62
1
10
95.500000000000
20
21.000004632448
11
14.500000000000
21
21.000004632448
0
LINE
8
LAYER1
62
1
10
97.500000000000
20
49.000004632448
11
97.500000000000
21
28.000004632448
0
LINE
8
LAYER1
62
1
10
97.500000000000
20
28.000004632448
11
95.500000000000
21
28.000004632448
0
LINE
8
LAYER1
62
1
10
95.500000000000
20
28.000004632448
11
95.500000000000
21
21.000004632448
0
LINE
8
LAYER1
62
1
10
14.500000000000
20
21.000004632448
11
14.500000000000
21
49.000004632448
0
LINE
8
LAYER1
62
1
10
14.500000000000
20
49.000004632448
11
97.500000000000
21
49.000004632448
0
LINE
8
LAYER1
62
1
10
97.500000000000
20
46.000004632448
11
14.500000000000
21
46.000004632448
0
LINE
8
LAYER1
62
1
10
97.500000000000
20
74.000004632448
11
97.500000000000
21
46.000004632448
0
LINE
8
LAYER1
62
1
10
14.500000000000
20
46.000004632448
11
14.500000000000
21
74.000004632448
0
LINE
8
LAYER1
62
1
10
14.500000000000
20
74.000004632448
11
97.500000000000
21
74.000004632448
0
LINE
8
LAYER1
62
1
10
97.500000000000
20
71.000004632448
11
14.500000000000
21
71.000004632448
0
LINE
8
LAYER1
62
1
10
97.500000000000
20
99.000004632448
11
97.500000000000
21
71.000004632448
0
LINE
8
LAYER1
62
1
10
14.500000000000
20
71.000004632448
11
14.500000000000
21
99.000004632448
0
LINE
8
LAYER1
62
1
10
14.500000000000
20
99.000004632448
11
97.500000000000
21
99.000004632448
0
LINE
8
LAYER1
62
1
10
97.500000000000
20
96.000004632448
11
14.500000000000
21
96.000004632448
0
LINE
8
LAYER1
62
1
10
97.500000000000
20
124.000004632448
11
97.500000000000
21
96.000004632448
0
LINE
8
LAYER1
62
1
10
14.500000000000
20
96.000004632448
11
14.500000000000
21
124.000004632448
0
LINE
8
LAYER1
62
1
10
14.500000000000
20
124.000004632448
11
97.500000000000
21
124.000004632448
0
LINE
8
LAYER1
62
1
10
97.500000000000
20
121.000004632448
11
14.500000000000
21
121.000004632448
0
LINE
8
LAYER1
62
1
10
97.500000000000
20
149.000004632448
11
97.500000000000
21
121.000004632448
0
LINE
8
LAYER1
62
1
10
14.500000000000
20
121.000004632448
11
14.500000000000
21
149.000004632448
0
LINE
8
LAYER1
62
1
10
14.500000000000
20
149.000004632448
11
97.500000000000
21
149.000004632448
0
LINE
8
LAYER1
62
1
10
97.500000000000
20
146.000004632448
11
14.500000000000
21
146.000004632448
0
LINE
8
LAYER1
62
1
10
97.500000000000
20
158.104572903362
11
97.500000000000
21
146.000004632448
0
LINE
8
LAYER1
62
1
10
14.500000000000
20
146.000004632448
11
14.500000000000
21
192.265876904723
0
LINE
8
LAYER1
62
1
10
14.500000000000
20
192.265876904723
11
97.500000000000
21
158.104572903362
0
LINE
8
LAYER1
62
1
10
97.500000000000
20
154.860409296803
11
14.500000000000
21
189.021713298165
0
LINE
8
LAYER1
62
1
10
95.500000000000
20
166.313181794148
11
95.500000000000
21
159.500000000000
0
LINE
8
LAYER1
62
1
10
95.500000000000
20
159.500000000000
11
97.500000000000
21
159.500000000000
0
LINE
8
LAYER1
62
1
10
97.500000000000
20
159.500000000000
11
97.500000000000
21
154.860409296803
0
LINE
8
LAYER1
62
1
10
14.500000000000
20
189.021713298165
11
14.500000000000
21
248.500000000000
0
LINE
8
LAYER1
62
1
10
14.500000000000
20
248.500000000000
11
17.582757765080
21
248.500000000000
0
LINE
8
LAYER1
62
1
10
17.582757765080
20
248.500000000000
11
95.500000000000
21
166.313181794148
0
LINE
8
LAYER1
62
1
10
95.500000000000
20
161.952750971183
11
14.500000000000
21
247.391250637313
0
LINE
8
LAYER1
62
1
10
101.460698385928
20
167.500000000000
11
95.500000000000
21
167.500000000000
0
LINE
8
LAYER1
62
1
10
95.500000000000
20
167.500000000000
11
95.500000000000
21
161.952750971183
0
LINE
8
LAYER1
62
1
10
14.500000000000
20
247.391250637313
11
14.500000000000
21
248.500000000000
0
LINE
8
LAYER1
62
1
10
14.500000000000
20
248.500000000000
11
76.810721722952
21
248.500000000000
0
LINE
8
LAYER1
62
1
10
76.810721722952
20
248.500000000000
11
101.460698385928
21
167.500000000000
0
LINE
8
LAYER1
62
1
10
98.324857223890
20
167.500000000000
11
73.674880560914
21
248.500000000000
0
LINE
8
LAYER1
62
1
10
115.000000000000
20
165.500000000000
11
103.500000000000
21
165.500000000000
0
LINE
8
LAYER1
62
1
10
103.500000000000
20
165.500000000000
11
103.500000000000
21
167.500000000000
0
LINE
8
LAYER1
62
1
10
103.500000000000
20
167.500000000000
11
98.324857223890
21
167.500000000000
0
LINE
8
LAYER1
62
1
10
73.674880560914
20
248.500000000000
11
115.000000000000
21
248.500000000000
0
LINE
8
LAYER1
62
1
10
115.000000000000
20
248.500000000000
11
115.000000000000
21
165.500000000000
0
LINE
8
LAYER1
62
1
10
112.000000000000
20
165.500000000000
11
112.000000000000
21
248.500000000000
0
LINE
8
LAYER1
62
1
10
140.000000000000
20
165.500000000000
11
112.000000000000
21
165.500000000000
0
LINE
8
LAYER1
62
1
10
112.000000000000
20
248.500000000000
11
140.000000000000
21
248.500000000000
0
LINE
8
LAYER1
62
1
10
140.000000000000
20
248.500000000000
11
140.000000000000
21
165.500000000000
0
LINE
8
LAYER1
62
1
10
137.000000000000
20
165.500000000000
11
137.000000000000
21
248.500000000000
0
LINE
8
LAYER1
62
1
10
165.000000000000
20
165.500000000000
11
137.000000000000
21
165.500000000000
0
LINE
8
LAYER1
62
1
10
137.000000000000
20
248.500000000000
11
165.000000000000
21
248.500000000000
0
LINE
8
LAYER1
62
1
10
165.000000000000
20
248.500000000000
11
165.000000000000
21
165.500000000000
0
LINE
8
LAYER1
62
1
10
162.000000000000
20
165.500000000000
11
162.000000000000
21
248.500000000000
0
LINE
8
LAYER1
62
1
10
190.000000000000
20
165.500000000000
11
162.000000000000
21
165.500000000000
0
LINE
8
LAYER1
62
1
10
162.000000000000
20
248.500000000000
11
190.000000000000
21
248.500000000000
0
LINE
8
LAYER1
62
1
10
190.000000000000
20
248.500000000000
11
190.000000000000
21
165.500000000000
0
LINE
8
LAYER1
62
1
10
187.000000000000
20
165.500000000000
11
187.000000000000
21
248.500000000000
0
LINE
8
LAYER1
62
1
10
215.000000000000
20
165.500000000000
11
187.000000000000
21
165.500000000000
0
LINE
8
LAYER1
62
1
10
187.000000000000
20
248.500000000000
11
215.000000000000
21
248.500000000000
0
LINE
8
LAYER1
62
1
10
215.000000000000
20
248.500000000000
11
215.000000000000
21
165.500000000000
0
LINE
8
LAYER1
62
1
10
212.000000000000
20
165.500000000000
11
212.000000000000
21
248.500000000000
0
LINE
8
LAYER1
62
1
10
240.000000000000
20
165.500000000000
11
212.000000000000
21
165.500000000000
0
LINE
8
LAYER1
62
1
10
212.000000000000
20
248.500000000000
11
240.000000000000
21
248.500000000000
0
LINE
8
LAYER1
62
1
10
240.000000000000
20
248.500000000000
11
240.000000000000
21
165.500000000000
0
LINE
8
LAYER1
62
1
10
237.000000000000
20
165.500000000000
11
237.000000000000
21
248.500000000000
0
LINE
8
LAYER1
62
1
10
265.000000000000
20
167.500000000000
11
257.000000000000
21
167.500000000000
0
LINE
8
LAYER1
62
1
10
257.000000000000
20
167.500000000000
11
257.000000000000
21
165.500000000000
0
LINE
8
LAYER1
62
1
10
257.000000000000
20
165.500000000000
11
237.000000000000
21
165.500000000000
0
LINE
8
LAYER1
62
1
10
237.000000000000
20
248.500000000000
11
265.000000000000
21
248.500000000000
0
LINE
8
LAYER1
62
1
10
265.000000000000
20
248.500000000000
11
265.000000000000
21
246.000000000000
0
LINE
8
LAYER1
62
1
10
265.000000000000
20
243.500000000000
11
265.000000000000
21
241.000000000000
0
LINE
8
LAYER1
62
1
10
265.000000000000
20
238.500000000000
11
265.000000000000
21
236.000000000000
0
LINE
8
LAYER1
62
1
10
265.000000000000
20
233.500000000000
11
265.000000000000
21
231.000000000000
0
LINE
8
LAYER1
62
1
10
265.000000000000
20
228.500000000000
11
265.000000000000
21
226.000000000000
0
LINE
8
LAYER1
62
1
10
265.000000000000
20
223.500000000000
11
265.000000000000
21
221.000000000000
0
LINE
8
LAYER1
62
1
10
265.000000000000
20
218.500000000000
11
265.000000000000
21
216.000000000000
0
LINE
8
LAYER1
62
1
10
265.000000000000
20
213.500000000000
11
265.000000000000
21
211.000000000000
0
LINE
8
LAYER1
62
1
10
265.000000000000
20
208.500000000000
11
265.000000000000
21
206.000000000000
0
LINE
8
LAYER1
62
1
10
265.000000000000
20
203.500000000000
11
265.000000000000
21
201.000000000000
0
LINE
8
LAYER1
62
1
10
265.000000000000
20
198.500000000000
11
265.000000000000
21
196.000000000000
0
LINE
8
LAYER1
62
1
10
265.000000000000
20
193.500000000000
11
265.000000000000
21
191.000000000000
0
LINE
8
LAYER1
62
1
10
265.000000000000
20
188.500000000000
11
265.000000000000
21
186.000000000000
0
LINE
8
LAYER1
62
1
10
265.000000000000
20
183.500000000000
11
265.000000000000
21
181.000000000000
0
LINE
8
LAYER1
62
1
10
265.000000000000
20
178.500000000000
11
265.000000000000
21
176.000000000000
0
LINE
8
LAYER1
62
1
10
265.000000000000
20
173.500000000000
11
265.000000000000
21
171.000000000000
0
LINE
8
LAYER1
62
1
10
265.000000000000
20
168.500000000000
11
265.000000000000
21
167.500000000000
0
LINE
8
LAYER2
62
2
10
93.500000000000
20
24.000004632448
11
91.000000000000
21
24.000004632448
0
LINE
8
LAYER2
62
2
10
88.500000000000
20
24.000004632448
11
86.000000000000
21
24.000004632448
0
LINE
8
LAYER2
62
2
10
83.500000000000
20
24.000004632448
11
81.000000000000
21
24.000004632448
0
LINE
8
LAYER2
62
2
10
78.500000000000
20
24.000004632448
11
76.000000000000
21
24.000004632448
0
LINE
8
LAYER2
62
2
10
73.500000000000
20
24.000004632448
11
71.000000000000
21
24.000004632448
0
LINE
8
LAYER2
62
2
10
68.500000000000
20
24.000004632448
11
66.000000000000
21
24.000004632448
0
LINE
8
LAYER2
62
2
10
63.500000000000
20
24.000004632448
11
61.000000000000
21
24.000004632448
0
LINE
8
LAYER2
62
2
10
58.500000000000
20
24.000004632448
11
56.000000000000
21
24.000004632448
0
LINE
8
LAYER2
62
2
10
53.500000000000
20
24.000004632448
11
51.000000000000
21
24.000004632448
0
LINE
8
LAYER2
62
2
10
48.500000000000
20
24.000004632448
11
46.000000000000
21
24.000004632448
0
LINE
8
LAYER2
62
2
10
43.500000000000
20
24.000004632448
11
41.000000000000
21
24.000004632448
0
LINE
8
LAYER2
62
2
10
38.500000000000
20
24.000004632448
11
36.000000000000
21
24.000004632448
0
LINE
8
LAYER2
62
2
10
33.500000000000
20
24.000004632448
11
31.000000000000
21
24.000004632448
0
LINE
8
LAYER2
62
2
10
28.500000000000
20
24.000004632448
11
26.000000000000
21
24.000004632448
0
LINE
8
LAYER2
62
2
10
23.500000000000
20
24.000004632448
11
21.000000000000
21
24.000004632448
0
LINE
8
LAYER2
62
2
10
18.500000000000
20
26.000004632448
11
21.000000000000
21
26.000004632448
0
LINE
8
LAYER2
62
2
10
23.500000000000
20
26.000004632448
11
26.000000000000
21
26.000004632448
0
LINE
8
LAYER2
62
2
10
28.500000000000
20
26.000004632448
11
31.000000000000
21
26.000004632448
0
LINE
8
LAYER2
62
2
10
33.500000000000
20
26.000004632448
11
36.000000000000
21
26.000004632448
0
LINE
8
LAYER2
62
2
10
38.500000000000
20
26.000004632448
11
41.000000000000
21
26.000004632448
0
LINE
8
LAYER2
62
2
10
43.500000000000
20
26.000004632448
11
46.000000000000
21
26.000004632448
0
LINE
8
LAYER2
62
2
10
48.500000000000
20
26.000004632448
11
51.000000000000
21
26.000004632448
0
LINE
8
LAYER2
62
2
10
53.500000000000
20
26.000004632448
11
56.000000000000
21
26.000004632448
0
LINE
8
LAYER2
62
2
10
58.500000000000
20
26.000004632448
11
61.000000000000
21
26.000004632448
0
LINE
8
LAYER2
62
2
10
63.500000000000
20
26.000004632448
11
66.000000000000
21
26.000004632448
0
LINE
8
LAYER2
62
2
10
68.500000000000
20
26.000004632448
11
71.000000000000
21
26.000004632448
0
LINE
8
LAYER2
62
2
10
73.500000000000
20
26.000004632448
11
76.000000000000
21
26.000004632448
0
LINE
8
LAYER2
62
2
10
78.500000000000
20
26.000004632448
11
81.000000000000
21
26.000004632448
0
LINE
8
LAYER2
62
2
10
83.500000000000
20
26.000004632448
11
86.000000000000
21
26.000004632448
0
LINE
8
LAYER2
62
2
10
88.500000000000
20
26.000004632448
11
91.000000000000
21
26.000004632448
0
LINE
8
LAYER2
62
2
10
93.500000000000
20
26.000004632448
11
93.500000000000
21
24.000004632448
0
LINE
8
LAYER2
62
2
10
18.500000000000
20
24.000004632448
11
18.500000000000
21
26.000004632448
0
LINE
8
LAYER2
62
2
10
93.500000000000
20
49.000004632448
11
91.000000000000
21
49.000004632448
0
LINE
8
LAYER2
62
2
10
88.500000000000
20
49.000004632448
11
86.000000000000
21
49.000004632448
0
LINE
8
LAYER2
62
2
10
83.500000000000
20
49.000004632448
11
81.000000000000
21
49.000004632448
0
LINE
8
LAYER2
62
2
10
78.500000000000
20
49.000004632448
11
76.000000000000
21
49.000004632448
0
LINE
8
LAYER2
62
2
10
73.500000000000
20
49.000004632448
11
71.000000000000
21
49.000004632448
0
LINE
8
LAYER2
62
2
10
68.500000000000
20
49.000004632448
11
66.000000000000
21
49.000004632448
0
LINE
8
LAYER2
62
2
10
63.500000000000
20
49.000004632448
11
61.000000000000
21
49.000004632448
0
LINE
8
LAYER2
62
2
10
58.500000000000
20
49.000004632448
11
56.000000000000
21
49.000004632448
0
LINE
8
LAYER2
62
2
10
53.500000000000
20
49.000004632448
11
51.000000000000
21
49.000004632448
0
LINE
8
LAYER2
62
2
10
48.500000000000
20
49.000004632448
11
46.000000000000
21
49.000004632448
0
LINE
8
LAYER2
62
2
10
43.500000000000
20
49.000004632448
11
41.000000000000
21
49.000004632448
0
LINE
8
LAYER2
62
2
10
38.500000000000
20
49.000004632448
11
36.000000000000
21
49.000004632448
0
LINE
8
LAYER2
62
2
10
33.500000000000
20
49.000004632448
11
31.000000000000
21
49.000004632448
0
LINE
8
LAYER2
62
2
10
28.500000000000
20
49.000004632448
11
26.000000000000
21
49.000004632448
0
LINE
8
LAYER2
62
2
10
23.500000000000
20
49.000004632448
11
21.000000000000
21
49.000004632448
0
LINE
8
LAYER2
62
2
10
18.500000000000
20
51.000004632448
11
21.000000000000
21
51.000004632448
0
LINE
8
LAYER2
62
2
10
23.500000000000
20
51.000004632448
11
26.000000000000
21
51.000004632448
0
LINE
8
LAYER2
62
2
10
28.500000000000
20
51.000004632448
11
31.000000000000
21
51.000004632448
0
LINE
8
LAYER2
62
2
10
33.500000000000
20
51.000004632448
11
36.000000000000
21
51.000004632448
0
LINE
8
LAYER2
62
2
10
38.500000000000
20
51.000004632448
11
41.000000000000
21
51.000004632448
0
LINE
8
LAYER2
62
2
10
43.500000000000
20
51.000004632448
11
46.000000000000
21
51.000004632448
0
LINE
8
LAYER2
62
2
10
48.500000000000
20
51.000004632448
11
51.000000000000
21
51.000004632448
0
LINE
8
LAYER2
62
2
10
53.500000000000
20
51.000004632448
11
56.000000000000
21
51.000004632448
0
LINE
8
LAYER2
62
2
10
58.500000000000
20
51.000004632448
11
61.000000000000
21
51.000004632448
0
LINE
8
LAYER2
62
2
10
63.500000000000
20
51.000004632448
11
66.000000000000
21
51.000004632448
0
LINE
8
LAYER2
62
2
10
68.500000000000
20
51.000004632448
11
71.000000000000
21
51.000004632448
0
LINE
8
LAYER2
62
2
10
73.500000000000
20
51.000004632448
11
76.000000000000
21
51.000004632448
0
LINE
8
LAYER2
62
2
10
78.500000000000
20
51.000004632448
11
81.000000000000
21
51.000004632448
0
LINE
8
LAYER2
62
2
10
83.500000000000
20
51.000004632448
11
86.000000000000
21
51.000004632448
0
LINE
8
LAYER2
62
2
10
88.500000000000
20
51.000004632448
11
91.000000000000
21
51.000004632448
0
LINE
8
LAYER2
62
2
10
93.500000000000
20
51.000004632448
11
93.500000000000
21
49.000004632448
0
LINE
8
LAYER2
62
2
10
18.500000000000
20
49.000004632448
11
18.500000000000
21
51.000004632448
0
LINE
8
LAYER2
62
2
10
93.500000000000
20
74.000004632448
11
91.000000000000
21
74.000004632448
0
LINE
8
LAYER2
62
2
10
88.500000000000
20
74.000004632448
11
86.000000000000
21
74.000004632448
0
LINE
8
LAYER2
62
2
10
83.500000000000
20
74.000004632448
11
81.000000000000
21
74.000004632448
0
LINE
8
LAYER2
62
2
10
78.500000000000
20
74.000004632448
11
76.000000000000
21
74.000004632448
0
LINE
8
LAYER2
62
2
10
73.500000000000
20
74.000004632448
11
71.000000000000
21
74.000004632448
0
LINE
8
LAYER2
62
2
10
68.500000000000
20
74.000004632448
11
66.000000000000
21
74.000004632448
0
LINE
8
LAYER2
62
2
10
63.500000000000
20
74.000004632448
11
61.000000000000
21
74.000004632448
0
LINE
8
LAYER2
62
2
10
58.500000000000
20
74.000004632448
11
56.000000000000
21
74.000004632448
0
LINE
8
LAYER2
62
2
10
53.500000000000
20
74.000004632448
11
51.000000000000
21
74.000004632448
0
LINE
8
LAYER2
62
2
10
48.500000000000
20
74.000004632448
11
46.000000000000
21
74.000004632448
0
LINE
8
LAYER2
62
2
10
43.500000000000
20
74.000004632448
11
41.000000000000
21
74.000004632448
0
LINE
8
LAYER2
62
2
10
38.500000000000
20
74.000004632448
11
36.000000000000
21
74.000004632448
0
LINE
8
LAYER2
62
2
10
33.500000000000
20
74.000004632448
11
31.000000000000
21
74.000004632448
0
LINE
8
LAYER2
62
2
10
28.500000000000
20
74.000004632448
11
26.000000000000
21
74.000004632448
0
LINE
8
LAYER2
62
2
10
23.500000000000
20
74.000004632448
11
21.000000000000
21
74.000004632448
0
LINE
8
LAYER2
62
2
10
18.500000000000
20
76.000004632448
11
21.000000000000
21
76.000004632448
0
LINE
8
LAYER2
62
2
10
23.500000000000
20
76.000004632448
11
26.000000000000
21
76.000004632448
0
LINE
8
LAYER2
62
2
10
28.500000000000
20
76.000004632448
11
31.000000000000
21
76.000004632448
0
LINE
8
LAYER2
62
2
10
33.500000000000
20
76.000004632448
11
36.000000000000
21
76.000004632448
0
LINE
8
LAYER2
62
2
10
38.500000000000
20
76.000004632448
11
41.000000000000
21
76.000004632448
0
LINE
8
LAYER2
62
2
10
43.500000000000
20
76.000004632448
11
46.000000000000
21
76.000004632448
0
LINE
8
LAYER2
62
2
10
48.500000000000
20
76.000004632448
11
51.000000000000
21
76.000004632448
0
LINE
8
LAYER2
62
2
10
53.500000000000
20
76.000004632448
11
56.000000000000
21
76.000004632448
0
LINE
8
LAYER2
62
2
10
58.500000000000
20
76.000004632448
11
61.000000000000
21
76.000004632448
0
LINE
8
LAYER2
62
2
10
63.500000000000
20
76.000004632448
11
66.000000000000
21
76.000004632448
0
LINE
8
LAYER2
62
2
10
68.500000000000
20
76.000004632448
11
71.000000000000
21
76.000004632448
0
LINE
8
LAYER2
62
2
10
73.500000000000
20
76.000004632448
11
76.000000000000
21
76.000004632448
0
LINE
8
LAYER2
62
2
10
78.500000000000
20
76.000004632448
11
81.000000000000
21
76.000004632448
0
LINE
8
LAYER2
62
2
10
83.500000000000
20
76.000004632448
11
86.000000000000
21
76.000004632448
0
LINE
8
LAYER2
62
2
10
88.500000000000
20
76.000004632448
11
91.000000000000
21
76.000004632448
0
LINE
8
LAYER2
62
2
10
93.500000000000
20
76.000004632448
11
93.500000000000
21
74.000004632448
0
LINE
8
LAYER2
62
2
10
18.500000000000
20
74.000004632448
11
18.500000000000
21
76.000004632448
0
LINE
8
LAYER2
62
2
10
93.500000000000
20
99.000004632448
11
91.000000000000
21
99.000004632448
0
LINE
8
LAYER2
62
2
10
88.500000000000
20
99.000004632448
11
86.000000000000
21
99.000004632448
0
LINE
8
LAYER2
62
2
10
83.500000000000
20
99.000004632448
11
81.000000000000
21
99.000004632448
0
LINE
8
LAYER2
62
2
10
78.500000000000
20
99.000004632448
11
76.000000000000
21
99.000004632448
0
LINE
8
LAYER2
62
2
10
73.500000000000
20
99.000004632448
11
71.000000000000
21
99.000004632448
0
LINE
8
LAYER2
62
2
10
68.500000000000
20
99.000004632448
11
66.000000000000
21
99.000004632448
0
LINE
8
LAYER2
62
2
10
63.500000000000
20
99.000004632448
11
61.000000000000
21
99.000004632448
0
LINE
8
LAYER2
62
2
10
58.500000000000
20
99.000004632448
11
56.000000000000
21
99.000004632448
0
LINE
8
LAYER2
62
2
10
53.500000000000
20
99.000004632448
11
51.000000000000
21
99.000004632448
0
LINE
8
LAYER2
62
2
10
48.500000000000
20
99.000004632448
11
46.000000000000
21
99.000004632448
0
LINE
8
LAYER2
62
2
10
43.500000000000
20
99.000004632448
11
41.000000000000
21
99.000004632448
0
LINE
8
LAYER2
62
2
10
38.500000000000
20
99.000004632448
11
36.000000000000
21
99.000004632448
0
LINE
8
LAYER2
62
2
10
33.500000000000
20
99.000004632448
11
31.000000000000
21
99.000004632448
0
LINE
8
LAYER2
62
2
10
28.500000000000
20
99.000004632448
11
26.000000000000
21
99.000004632448
0
LINE
8
LAYER2
62
2
10
23.500000000000
20
99.000004632448
11
21.000000000000
21
99.000004632448
0
LINE
8
LAYER2
62
2
10
18.500000000000
20
101.000004632448
11
21.000000000000
21
101.000004632448
0
LINE
8
LAYER2
62
2
10
23.500000000000
20
101.000004632448
11
26.000000000000
21
101.000004632448
0
LINE
8
LAYER2
62
2
10
28.500000000000
20
101.000004632448
11
31.000000000000
21
101.000004632448
0
LINE
8
LAYER2
62
2
10
33.500000000000
20
101.000004632448
11
36.000000000000
21
101.000004632448
0
LINE
8
LAYER2
62
2
10
38.500000000000
20
101.000004632448
11
41.000000000000
21
101.000004632448
0
LINE
8
LAYER2
62
2
10
43.500000000000
20
101.000004632448
11
46.000000000000
21
101.000004632448
0
LINE
8
LAYER2
62
2
10
48.500000000000
20
101.000004632448
11
51.000000000000
21
101.000004632448
0
LINE
8
LAYER2
62
2
10
53.500000000000
20
101.000004632448
11
56.000000000000
21
101.000004632448
0
LINE
8
LAYER2
62
2
10
58.500000000000
20
101.000004632448
11
61.000000000000
21
101.000004632448
0
LINE
8
LAYER2
62
2
10
63.500000000000
20
101.000004632448
11
66.000000000000
21
101.000004632448
0
LINE
8
LAYER2
62
2
10
68.500000000000
20
101.000004632448
11
71.000000000000
21
101.000004632448
0
LINE
8
LAYER2
62
2
10
73.500000000000
20
101.000004632448
11
76.000000000000
21
101.000004632448
0
LINE
8
LAYER2
62
2
10
78.500000000000
20
101.000004632448
11
81.000000000000
21
101.000004632448
0
LINE
8
LAYER2
62
2
10
83.500000000000
20
101.000004632448
11
86.000000000000
21
101.000004632448
0
LINE
8
LAYER2
62
2
10
88.500000000000
20
101.000004632448
11
91.000000000000
21
101.000004632448
0
LINE
8
LAYER2
62
2
10
93.500000000000
20
101.000004632448
11
93.500000000000
21
99.000004632448
0
LINE
8
LAYER2
62
2
10
18.500000000000
20
99.000004632448
11
18.500000000000
21
101.000004632448
0
LINE
8
LAYER2
62
2
10
93.500000000000
20
124.000004632448
11
91.000000000000
21
124.000004632448
0
LINE
8
LAYER2
62
2
10
88.500000000000
20
124.000004632448
11
86.000000000000
21
124.000004632448
0
LINE
8
LAYER2
62
2
10
83.500000000000
20
124.000004632448
11
81.000000000000
21
124.000004632448
0
LINE
8
LAYER2
62
2
10
78.500000000000
20
124.000004632448
11
76.000000000000
21
124.000004632448
0
LINE
8
LAYER2
62
2
10
73.500000000000
20
124.000004632448
11
71.000000000000
21
124.000004632448
0
LINE
8
LAYER2
62
2
10
68.500000000000
20
124.000004632448
11
66.000000000000
21
124.000004632448
0
LINE
8
LAYER2
62
2
10
63.500000000000
20
124.000004632448
11
61.000000000000
21
124.000004632448
0
LINE
8
LAYER2
62
2
10
58.500000000000
20
124.000004632448
11
56.000000000000
21
124.000004632448
0
LINE
8
LAYER2
62
2
10
53.500000000000
20
124.000004632448
11
51.000000000000
21
124.000004632448
0
LINE
8
LAYER2
62
2
10
48.500000000000
20
124.000004632448
11
46.000000000000
21
124.000004632448
0
LINE
8
LAYER2
62
2
10
43.500000000000
20
124.000004632448
11
41.000000000000
21
124.000004632448
0
LINE
8
LAYER2
62
2
10
38.500000000000
20
124.000004632448
11
36.000000000000
21
124.000004632448
0
LINE
8
LAYER2
62
2
10
33.500000000000
20
124.000004632448
11
31.000000000000
21
124.000004632448
0
LINE
8
LAYER2
62
2
10
28.500000000000
20
124.000004632448
11
26.000000000000
21
124.000004632448
0
LINE
8
LAYER2
62
2
10
23.500000000000
20
124.000004632448
11
21.000000000000
21
124.000004632448
0
LINE
8
LAYER2
62
2
10
18.500000000000
20
126.000004632448
11
21.000000000000
21
126.000004632448
0
LINE
8
LAYER2
62
2
10
23.500000000000
20
126.000004632448
11
26.000000000000
21
126.000004632448
0
LINE
8
LAYER2
62
2
10
28.500000000000
20
126.000004632448
11
31.000000000000
21
126.000004632448
0
LINE
8
LAYER2
62
2
10
33.500000000000
20
126.000004632448
11
36.000000000000
21
126.000004632448
0
LINE
8
LAYER2
62
2
10
38.500000000000
20
126.000004632448
11
41.000000000000
21
126.000004632448
0
LINE
8
LAYER2
62
2
10
43.500000000000
20
126.000004632448
11
46.000000000000
21
126.000004632448
0
LINE
8
LAYER2
62
2
10
48.500000000000
20
126.000004632448
11
51.000000000000
21
126.000004632448
0
LINE
8
LAYER2
62
2
10
53.500000000000
20
126.000004632448
11
56.000000000000
21
126.000004632448
0
LINE
8
LAYER2
62
2
10
58.500000000000
20
126.000004632448
11
61.000000000000
21
126.000004632448
0
LINE
8
LAYER2
62
2
10
63.500000000000
20
126.000004632448
11
66.000000000000
21
126.000004632448
0
LINE
8
LAYER2
62
2
10
68.500000000000
20
126.000004632448
11
71.000000000000
21
126.000004632448
0
LINE
8
LAYER2
62
2
10
73.500000000000
20
126.000004632448
11
76.000000000000
21
126.000004632448
0
LINE
8
LAYER2
62
2
10
78.500000000000
20
126.000004632448
11
81.000000000000
21
126.000004632448
0
LINE
8
LAYER2
62
2
10
83.500000000000
20
126.000004632448
11
86.000000000000
21
126.000004632448
0
LINE
8
LAYER2
62
2
10
88.500000000000
20
126.000004632448
11
91.000000000000
21
126.000004632448
0
LINE
8
LAYER2
62
2
10
93.500000000000
20
126.000004632448
11
93.500000000000
21
124.000004632448
0
LINE
8
LAYER2
62
2
10
18.500000000000
20
124.000004632448
11
18.500000000000
21
126.000004632448
0
LINE
8
LAYER2
62
2
10
93.500000000000
20
149.000004632448
11
91.000000000000
21
149.000004632448
0
LINE
8
LAYER2
62
2
10
88.500000000000
20
149.000004632448
11
86.000000000000
21
149.000004632448
0
LINE
8
LAYER2
62
2
10
83.500000000000
20
149.000004632448
11
81.000000000000
21
149.000004632448
0
LINE
8
LAYER2
62
2
10
78.500000000000
20
149.000004632448
11
76.000000000000
21
149.000004632448
0
LINE
8
LAYER2
62
2
10
73.500000000000
20
149.000004632448
11
71.000000000000
21
149.000004632448
0
LINE
8
LAYER2
62
2
10
68.500000000000
20
149.000004632448
11
66.000000000000
21
149.000004632448
0
LINE
8
LAYER2
62
2
10
63.500000000000
20
149.000004632448
11
61.000000000000
21
149.000004632448
0
LINE
8
LAYER2
62
2
10
58.500000000000
20
149.000004632448
11
56.000000000000
21
149.000004632448
0
LINE
8
LAYER2
62
2
10
53.500000000000
20
149.000004632448
11
51.000000000000
21
149.000004632448
0
LINE
8
LAYER2
62
2
10
48.500000000000
20
149.000004632448
11
46.000000000000
21
149.000004632448
0
LINE
8
LAYER2
62
2
10
43.500000000000
20
149.000004632448
11
41.000000000000
21
149.000004632448
0
LINE
8
LAYER2
62
2
10
38.500000000000
20
149.000004632448
11
36.000000000000
21
149.000004632448
0
LINE
8
LAYER2
62
2
10
33.500000000000
20
149.000004632448
11
31.000000000000
21
149.000004632448
0
LINE
8
LAYER2
62
2
10
28.500000000000
20
149.000004632448
11
26.000000000000
21
149.000004632448
0
LINE
8
LAYER2
62
2
10
23.500000000000
20
149.000004632448
11
21.000000000000
21
149.000004632448
0
LINE
8
LAYER2
62
2
10
18.500000000000
20
151.000004632448
11
21.000000000000
21
151.000004632448
0
LINE
8
LAYER2
62
2
10
23.500000000000
20
151.000004632448
11
26.000000000000
21
151.000004632448
0
LINE
8
LAYER2
62
2
10
28.500000000000
20
151.000004632448
11
31.000000000000
21
151.000004632448
0
LINE
8
LAYER2
62
2
10
33.500000000000
20
151.000004632448
11
36.000000000000
21
151.000004632448
0
LINE
8
LAYER2
62
2
10
38.500000000000
20
151.000004632448
11
41.000000000000
21
151.000004632448
0
LINE
8
LAYER2
62
2
10
43.500000000000
20
151.000004632448
11
46.000000000000
21
151.000004632448
0
LINE
8
LAYER2
62
2
10
48.500000000000
20
151.000004632448
11
51.000000000000
21
151.000004632448
0
LINE
8
LAYER2
62
2
10
53.500000000000
20
151.000004632448
11
56.000000000000
21
151.000004632448
0
LINE
8
LAYER2
62
2
10
58.500000000000
20
151.000004632448
11
61.000000000000
21
151.000004632448
0
LINE
8
LAYER2
62
2
10
63.500000000000
20
151.000004632448
11
66.000000000000
21
151.000004632448
0
LINE
8
LAYER2
62
2
10
68.500000000000
20
151.000004632448
11
71.000000000000
21
151.000004632448
0
LINE
8
LAYER2
62
2
10
73.500000000000
20
151.000004632448
11
76.000000000000
21
151.000004632448
0
LINE
8
LAYER2
62
2
10
78.500000000000
20
151.000004632448
11
81.000000000000
21
151.000004632448
0
LINE
8
LAYER2
62
2
10
83.500000000000
20
151.000004632448
11
86.000000000000
21
151.000004632448
0
LINE
8
LAYER2
62
2
10
88.500000000000
20
151.000004632448
11
91.000000000000
21
151.000004632448
0
LINE
8
LAYER2
62
2
10
93.500000000000
20
151.000004632448
11
93.500000000000
21
149.000004632448
0
LINE
8
LAYER2
62
2
10
18.500000000000
20
149.000004632448
11
18.500000000000
21
151.000004632448
0
LINE
8
LAYER2
62
2
10
92.989503167287
20
159.961012102151
11
90.677659219331
21
160.912525402269
0
LINE
8
LAYER2
62
2
10
88.365815271376
20
161.864038702387
11
86.053971323420
21
162.815552002505
0
LINE
8
LAYER2
62
2
10
83.742127375465
20
163.767065302624
11
81.430283427510
21
164.718578602742
0
LINE
8
LAYER2
62
2
10
79.118439479554
20
165.670091902860
11
76.806595531599
21
166.621605202978
0
LINE
8
LAYER2
62
2
10
74.494751583643
20
167.573118503097
11
72.182907635688
21
168.524631803215
0
LINE
8
LAYER2
62
2
10
69.871063687732
20
169.476145103333
11
67.559219739777
21
170.427658403451
0
LINE
8
LAYER2
62
2
10
65.247375791822
20
171.379171703570
11
62.935531843866
21
172.330685003688
0
LINE
8
LAYER2
62
2
10
60.623687895911
20
173.282198303806
11
58.311843947955
21
174.233711603924
0
LINE
8
LAYER2
62
2
10
56.000000000000
20
175.185224904043
11
53.688156052044
21
176.136738204161
0
LINE
8
LAYER2
62
2
10
51.376312104089
20
177.088251504279
11
49.064468156134
21
178.039764804397
0
LINE
8
LAYER2
62
2
10
46.752624208178
20
178.991278104516
11
44.440780260223
21
179.942791404634
0
LINE
8
LAYER2
62
2
10
42.128936312267
20
180.894304704752
11
39.817092364312
21
181.845818004870
0
LINE
8
LAYER2
62
2
10
37.505248416357
20
182.797331304989
11
35.193404468401
21
183.748844605107
0
LINE
8
LAYER2
62
2
10
32.881560520446
20
184.700357905225
11
30.569716572490
21
185.651871205343
0
LINE
8
LAYER2
62
2
10
28.257872624535
20
186.603384505462
11
25.946028676579
21
187.554897805580
0
LINE
8
LAYER2
62
2
10
23.634184728624
20
188.506411105698
11
21.322340780669
21
189.457924405816
0
LINE
8
LAYER2
62
2
10
19.771707472808
20
192.258912864299
11
22.083551420763
21
191.307399564180
0
LINE
8
LAYER2
62
2
10
24.395395368719
20
190.355886264062
11
26.707239316674
21
189.404372963944
0
LINE
8
LAYER2
62
2
10
29.019083264630
20
188.452859663826
11
31.330927212585
21
187.501346363707
0
LINE
8
LAYER2
62
2
10
33.642771160540
20
186.549833063589
11
35.954615108496
21
185.598319763471
0
LINE
8
LAYER2
62
2
10
38.266459056451
20
184.646806463353
11
40.578303004407
21
183.695293163234
0
LINE
8
LAYER2
62
2
10
42.890146952362
20
182.743779863116
11
45.201990900317
21
181.792266562998
0
LINE
8
LAYER2
62
2
10
47.513834848273
20
180.840753262880
11
49.825678796228
21
179.889239962761
0
LINE
8
LAYER2
62
2
10
52.137522744184
20
178.937726662643
11
54.449366692139
21
177.986213362525
0
LINE
8
LAYER2
62
2
10
56.761210640095
20
177.034700062407
11
59.073054588050
21
176.083186762288
0
LINE
8
LAYER2
62
2
10
61.384898536005
20
175.131673462170
11
63.696742483961
21
174.180160162052
0
LINE
8
LAYER2
62
2
10
66.008586431916
20
173.228646861934
11
68.320430379872
21
172.277133561815
0
LINE
8
LAYER2
62
2
10
70.632274327827
20
171.325620261697
11
72.944118275783
21
170.374106961579
0
LINE
8
LAYER2
62
2
10
75.255962223738
20
169.422593661461
11
77.567806171693
21
168.471080361342
0
LINE
8
LAYER2
62
2
10
79.879650119649
20
167.519567061224
11
82.191494067604
21
166.568053761106
0
LINE
8
LAYER2
62
2
10
84.503338015560
20
165.616540460988
11
86.815181963515
21
164.665027160869
0
LINE
8
LAYER2
62
2
10
89.127025911470
20
163.713513860751
11
91.438869859426
21
162.762000560633
0
LINE
8
LAYER2
62
2
10
93.750713807381
20
161.810487260515
11
92.989503167287
21
159.961012102151
0
LINE
8
LAYER2
62
2
10
19.010496832713
20
190.409437705934
11
19.771707472808
21
192.258912864299
0
LINE
8
LAYER2
62
2
10
93.531788843406
20
168.389243624339
11
91.811775316188
21
170.203507515339
0
LINE
8
LAYER2
62
2
10
90.091761788970
20
172.017771406339
11
88.371748261751
21
173.832035297339
0
LINE
8
LAYER2
62
2
10
86.651734734533
20
175.646299188338
11
84.931721207315
21
177.460563079338
0
LINE
8
LAYER2
62
2
10
83.211707680096
20
179.274826970338
11
81.491694152878
21
181.089090861338
0
LINE
8
LAYER2
62
2
10
79.771680625660
20
182.903354752338
11
78.051667098441
21
184.717618643338
0
LINE
8
LAYER2
62
2
10
76.331653571223
20
186.531882534337
11
74.611640044004
21
188.346146425337
0
LINE
8
LAYER2
62
2
10
72.891626516786
20
190.160410316337
11
71.171612989568
21
191.974674207337
0
LINE
8
LAYER2
62
2
10
69.451599462349
20
193.788938098337
11
67.731585935131
21
195.603201989337
0
LINE
8
LAYER2
62
2
10
66.011572407913
20
197.417465880336
11
64.291558880694
21
199.231729771336
0
LINE
8
LAYER2
62
2
10
62.571545353476
20
201.045993662336
11
60.851531826258
21
202.860257553336
0
LINE
8
LAYER2
62
2
10
59.131518299039
20
204.674521444336
11
57.411504771821
21
206.488785335335
0
LINE
8
LAYER2
62
2
10
55.691491244603
20
208.303049226335
11
53.971477717384
21
210.117313117335
0
LINE
8
LAYER2
62
2
10
52.251464190166
20
211.931577008335
11
50.531450662947
21
213.745840899335
0
LINE
8
LAYER2
62
2
10
48.811437135729
20
215.560104790335
11
47.091423608511
21
217.374368681334
0
LINE
8
LAYER2
62
2
10
45.371410081292
20
219.188632572334
11
43.651396554074
21
221.002896463334
0
LINE
8
LAYER2
62
2
10
41.931383026856
20
222.817160354334
11
40.211369499637
21
224.631424245334
0
LINE
8
LAYER2
62
2
10
38.491355972419
20
226.445688136334
11
36.771342445201
21
228.259952027333
0
LINE
8
LAYER2
62
2
10
35.051328917982
20
230.074215918333
11
33.331315390764
21
231.888479809333
0
LINE
8
LAYER2
62
2
10
31.611301863545
20
233.702743700333
11
29.891288336327
21
235.517007591333
0
LINE
8
LAYER2
62
2
10
28.171274809109
20
237.331271482333
11
26.451261281890
21
239.145535373332
0
LINE
8
LAYER2
62
2
10
24.731247754672
20
240.959799264332
11
23.011234227454
21
242.774063155332
0
LINE
8
LAYER2
62
2
10
22.742631813035
20
245.964337868107
11
24.462645340253
21
244.150073977107
0
LINE
8
LAYER2
62
2
10
26.182658867472
20
242.335810086107
11
27.902672394690
21
240.521546195107
0
LINE
8
LAYER2
62
2
10
29.622685921908
20
238.707282304107
11
31.342699449127
21
236.893018413108
0
LINE
8
LAYER2
62
2
10
33.062712976345
20
235.078754522108
11
34.782726503564
21
233.264490631108
0
LINE
8
LAYER2
62
2
10
36.502740030782
20
231.450226740108
11
38.222753558000
21
229.635962849108
0
LINE
8
LAYER2
62
2
10
39.942767085219
20
227.821698958108
11
41.662780612437
21
226.007435067109
0
LINE
8
LAYER2
62
2
10
43.382794139655
20
224.193171176109
11
45.102807666874
21
222.378907285109
0
LINE
8
LAYER2
62
2
10
46.822821194092
20
220.564643394109
11
48.542834721310
21
218.750379503109
0
LINE
8
LAYER2
62
2
10
50.262848248529
20
216.936115612110
11
51.982861775747
21
215.121851721110
0
LINE
8
LAYER2
62
2
10
53.702875302966
20
213.307587830110
11
55.422888830184
21
211.493323939110
0
LINE
8
LAYER2
62
2
10
57.142902357402
20
209.679060048110
11
58.862915884621
21
207.864796157110
0
LINE
8
LAYER2
62
2
10
60.582929411839
20
206.050532266111
11
62.302942939057
21
204.236268375111
0
LINE
8
LAYER2
62
2
10
64.022956466276
20
202.422004484111
11
65.742969993494
21
200.607740593111
0
LINE
8
LAYER2
62
2
10
67.462983520712
20
198.793476702111
11
69.182997047931
21
196.979212811111
0
LINE
8
LAYER2
62
2
10
70.903010575149
20
195.164948920112
11
72.623024102368
21
193.350685029112
0
LINE
8
LAYER2
62
2
10
74.343037629586
20
191.536421138112
11
76.063051156804
21
189.722157247112
0
LINE
8
LAYER2
62
2
10
77.783064684023
20
187.907893356112
11
79.503078211241
21
186.093629465113
0
LINE
8
LAYER2
62
2
10
81.223091738459
20
184.279365574113
11
82.943105265678
21
182.465101683113
0
LINE
8
LAYER2
62
2
10
84.663118792896
20
180.650837792113
11
86.383132320114
21
178.836573901113
0
LINE
8
LAYER2
62
2
10
88.103145847333
20
177.022310010113
11
89.823159374551
21
175.208046119114
0
LINE
8
LAYER2
62
2
10
91.543172901769
20
173.393782228114
11
93.263186428988
21
171.579518337114
0
LINE
8
LAYER2
62
2
10
94.983199956206
20
169.765254446114
11
93.531788843406
21
168.389243624339
0
LINE
8
LAYER2
62
2
10
21.291220700235
20
244.588327046332
11
22.742631813035
21
245.964337868107
0
LINE
8
LAYER2
62
2
10
101.085545325076
20
168.732755646971
11
100.357700664383
21
171.124458419035
0
LINE
8
LAYER2
62
2
10
99.629856003689
20
173.516161191099
11
98.902011342996
21
175.907863963164
0
LINE
8
LAYER2
62
2
10
98.174166682303
20
178.299566735228
11
97.446322021610
21
180.691269507292
0
LINE
8
LAYER2
62
2
10
96.718477360916
20
183.082972279357
11
95.990632700223
21
185.474675051421
0
LINE
8
LAYER2
62
2
10
95.262788039530
20
187.866377823485
11
94.534943378836
21
190.258080595550
0
LINE
8
LAYER2
62
2
10
93.807098718143
20
192.649783367614
11
93.079254057450
21
195.041486139678
0
LINE
8
LAYER2
62
2
10
92.351409396756
20
197.433188911742
11
91.623564736063
21
199.824891683807
0
LINE
8
LAYER2
62
2
10
90.895720075370
20
202.216594455871
11
90.167875414676
21
204.608297227935
0
LINE
8
LAYER2
62
2
10
89.440030753983
20
207.000000000000
11
88.712186093290
21
209.391702772064
0
LINE
8
LAYER2
62
2
10
87.984341432596
20
211.783405544128
11
87.256496771903
21
214.175108316193
0
LINE
8
LAYER2
62
2
10
86.528652111210
20
216.566811088257
11
85.800807450516
21
218.958513860321
0
LINE
8
LAYER2
62
2
10
85.072962789823
20
221.350216632386
11
84.345118129130
21
223.741919404450
0
LINE
8
LAYER2
62
2
10
83.617273468436
20
226.133622176514
11
82.889428807743
21
228.525324948579
0
LINE
8
LAYER2
62
2
10
82.161584147050
20
230.917027720643
11
81.433739486356
21
233.308730492707
0
LINE
8
LAYER2
62
2
10
80.705894825663
20
235.700433264772
11
79.978050164970
21
238.092136036836
0
LINE
8
LAYER2
62
2
10
79.250205504276
20
240.483838808900
11
78.522360843583
21
242.875541580965
0
LINE
8
LAYER2
62
2
10
79.707878400541
20
245.849520081584
11
80.435723061234
21
243.457817309520
0
LINE
8
LAYER2
62
2
10
81.163567721928
20
241.066114537455
11
81.891412382621
21
238.674411765391
0
LINE
8
LAYER2
62
2
10
82.619257043314
20
236.282708993327
11
83.347101704008
21
233.891006221262
0
LINE
8
LAYER2
62
2
10
84.074946364701
20
231.499303449198
11
84.802791025394
21
229.107600677134
0
LINE
8
LAYER2
62
2
10
85.530635686088
20
226.715897905069
11
86.258480346781
21
224.324195133005
0
LINE
8
LAYER2
62
2
10
86.986325007474
20
221.932492360941
11
87.714169668168
21
219.540789588876
0
LINE
8
LAYER2
62
2
10
88.442014328861
20
217.149086816812
11
89.169858989554
21
214.757384044748
0
LINE
8
LAYER2
62
2
10
89.897703650248
20
212.365681272684
11
90.625548310941
21
209.973978500619
0
LINE
8
LAYER2
62
2
10
91.353392971634
20
207.582275728555
11
92.081237632328
21
205.190572956491
0
LINE
8
LAYER2
62
2
10
92.809082293021
20
202.798870184426
11
93.536926953714
21
200.407167412362
0
LINE
8
LAYER2
62
2
10
94.264771614408
20
198.015464640298
11
94.992616275101
21
195.623761868233
0
LINE
8
LAYER2
62
2
10
95.720460935794
20
193.232059096169
11
96.448305596488
21
190.840356324105
0
LINE
8
LAYER2
62
2
10
97.176150257181
20
188.448653552040
11
97.903994917874
21
186.056950779976
0
LINE
8
LAYER2
62
2
10
98.631839578567
20
183.665248007912
11
99.359684239261
21
181.273545235847
0
LINE
8
LAYER2
62
2
10
100.087528899954
20
178.881842463783
11
100.815373560647
21
176.490139691719
0
LINE
8
LAYER2
62
2
10
101.543218221341
20
174.098436919654
11
102.271062882034
21
171.706734147590
0
LINE
8
LAYER2
62
2
10
102.998907542728
20
169.315031375525
11
101.085545325076
21
168.732755646971
0
LINE
8
LAYER2
62
2
10
77.794516182890
20
245.267244353029
11
79.707878400541
21
245.849520081584
0
LINE
8
LAYER2
62
2
10
115.000000000000
20
169.500000000000
11
115.000000000000
21
172.000000000000
0
LINE
8
LAYER2
62
2
10
115.000000000000
20
174.500000000000
11
115.000000000000
21
177.000000000000
0
LINE
8
LAYER2
62
2
10
115.000000000000
20
179.500000000000
11
115.000000000000
21
182.000000000000
0
LINE
8
LAYER2
62
2
10
115.000000000000
20
184.500000000000
11
115.000000000000
21
187.000000000000
0
LINE
8
LAYER2
62
2
10
115.000000000000
20
189.500000000000
11
115.000000000000
21
192.000000000000
0
LINE
8
LAYER2
62
2
10
115.000000000000
20
194.500000000000
11
115.000000000000
21
197.000000000000
0
LINE
8
LAYER2
62
2
10
115.000000000000
20
199.500000000000
11
115.000000000000
21
202.000000000000
0
LINE
8
LAYER2
62
2
10
115.000000000000
20
204.500000000000
11
115.000000000000
21
207.000000000000
0
LINE
8
LAYER2
62
2
10
115.000000000000
20
209.500000000000
11
115.000000000000
21
212.000000000000
0
LINE
8
LAYER2
62
2
10
115.000000000000
20
214.500000000000
11
115.000000000000
21
217.000000000000
0
LINE
8
LAYER2
62
2
10
115.000000000000
20
219.500000000000
11
115.000000000000
21
222.000000000000
0
LINE
8
LAYER2
62
2
10
115.000000000000
20
224.500000000000
11
115.000000000000
21
227.000000000000
0
LINE
8
LAYER2
62
2
10
115.000000000000
20
229.500000000000
11
115.000000000000
21
232.000000000000
0
LINE
8
LAYER2
62
2
10
115.000000000000
20
234.500000000000
11
115.000000000000
21
237.000000000000
0
LINE
8
LAYER2
62
2
10
115.000000000000
20
239.500000000000
11
115.000000000000
21
242.000000000000
0
LINE
8
LAYER2
62
2
10
117.000000000000
20
244.500000000000
11
117.000000000000
21
242.000000000000
0
LINE
8
LAYER2
62
2
10
117.000000000000
20
239.500000000000
11
117.000000000000
21
237.000000000000
0
LINE
8
LAYER2
62
2
10
117.000000000000
20
234.500000000000
11
117.000000000000
21
232.000000000000
0
LINE
8
LAYER2
62
2
10
117.000000000000
20
229.500000000000
11
117.000000000000
21
227.000000000000
0
LINE
8
LAYER2
62
2
10
117.000000000000
20
224.500000000000
11
117.000000000000
21
222.000000000000
0
LINE
8
LAYER2
62
2
10
117.000000000000
20
219.500000000000
11
117.000000000000
21
217.000000000000
0
LINE
8
LAYER2
62
2
10
117.000000000000
20
214.500000000000
11
117.000000000000
21
212.000000000000
0
LINE
8
LAYER2
62
2
10
117.000000000000
20
209.500000000000
11
117.000000000000
21
207.000000000000
0
LINE
8
LAYER2
62
2
10
117.000000000000
20
204.500000000000
11
117.000000000000
21
202.000000000000
0
LINE
8
LAYER2
62
2
10
117.000000000000
20
199.500000000000
11
117.000000000000
21
197.000000000000
0
LINE
8
LAYER2
62
2
10
117.000000000000
20
194.500000000000
11
117.000000000000
21
192.000000000000
0
LINE
8
LAYER2
62
2
10
117.000000000000
20
189.500000000000
11
117.000000000000
21
187.000000000000
0
LINE
8
LAYER2
62
2
10
117.000000000000
20
184.500000000000
11
117.000000000000
21
182.000000000000
0
LINE
8
LAYER2
62
2
10
117.000000000000
20
179.500000000000
11
117.000000000000
21
177.000000000000
0
LINE
8
LAYER2
62
2
10
117.000000000000
20
174.500000000000
11
117.000000000000
21
172.000000000000
0
LINE
8
LAYER2
62
2
10
117.000000000000
20
169.500000000000
11
115.000000000000
21
169.500000000000
0
LINE
8
LAYER2
62
2
10
115.000000000000
20
244.500000000000
11
117.000000000000
21
244.500000000000
0
LINE
8
LAYER2
62
2
10
140.000000000000
20
169.500000000000
11
140.000000000000
21
172.000000000000
0
LINE
8
LAYER2
62
2
10
140.000000000000
20
174.500000000000
11
140.000000000000
21
177.000000000000
0
LINE
8
LAYER2
62
2
10
140.000000000000
20
179.500000000000
11
140.000000000000
21
182.000000000000
0
LINE
8
LAYER2
62
2
10
140.000000000000
20
184.500000000000
11
140.000000000000
21
187.000000000000
0
LINE
8
LAYER2
62
2
10
140.000000000000
20
189.500000000000
11
140.000000000000
21
192.000000000000
0
LINE
8
LAYER2
62
2
10
140.000000000000
20
194.500000000000
11
140.000000000000
21
197.000000000000
0
LINE
8
LAYER2
62
2
10
140.000000000000
20
199.500000000000
11
140.000000000000
21
202.000000000000
0
LINE
8
LAYER2
62
2
10
140.000000000000
20
204.500000000000
11
140.000000000000
21
207.000000000000
0
LINE
8
LAYER2
62
2
10
140.000000000000
20
209.500000000000
11
140.000000000000
21
212.000000000000
0
LINE
8
LAYER2
62
2
10
140.000000000000
20
214.500000000000
11
140.000000000000
21
217.000000000000
0
LINE
8
LAYER2
62
2
10
140.000000000000
20
219.500000000000
11
140.000000000000
21
222.000000000000
0
LINE
8
LAYER2
62
2
10
140.000000000000
20
224.500000000000
11
140.000000000000
21
227.000000000000
0
LINE
8
LAYER2
62
2
10
140.000000000000
20
229.500000000000
11
140.000000000000
21
232.000000000000
0
LINE
8
LAYER2
62
2
10
140.000000000000
20
234.500000000000
11
140.000000000000
21
237.000000000000
0
LINE
8
LAYER2
62
2
10
140.000000000000
20
239.500000000000
11
140.000000000000
21
242.000000000000
0
LINE
8
LAYER2
62
2
10
142.000000000000
20
244.500000000000
11
142.000000000000
21
242.000000000000
0
LINE
8
LAYER2
62
2
10
142.000000000000
20
239.500000000000
11
142.000000000000
21
237.000000000000
0
LINE
8
LAYER2
62
2
10
142.000000000000
20
234.500000000000
11
142.000000000000
21
232.000000000000
0
LINE
8
LAYER2
62
2
10
142.000000000000
20
229.500000000000
11
142.000000000000
21
227.000000000000
0
LINE
8
LAYER2
62
2
10
142.000000000000
20
224.500000000000
11
142.000000000000
21
222.000000000000
0
LINE
8
LAYER2
62
2
10
142.000000000000
20
219.500000000000
11
142.000000000000
21
217.000000000000
0
LINE
8
LAYER2
62
2
10
142.000000000000
20
214.500000000000
11
142.000000000000
21
212.000000000000
0
LINE
8
LAYER2
62
2
10
142.000000000000
20
209.500000000000
11
142.000000000000
21
207.000000000000
0
LINE
8
LAYER2
62
2
10
142.000000000000
20
204.500000000000
11
142.000000000000
21
202.000000000000
0
LINE
8
LAYER2
62
2
10
142.000000000000
20
199.500000000000
11
142.000000000000
21
197.000000000000
0
LINE
8
LAYER2
62
2
10
142.000000000000
20
194.500000000000
11
142.000000000000
21
192.000000000000
0
LINE
8
LAYER2
62
2
10
142.000000000000
20
189.500000000000
11
142.000000000000
21
187.000000000000
0
LINE
8
LAYER2
62
2
10
142.000000000000
20
184.500000000000
11
142.000000000000
21
182.000000000000
0
LINE
8
LAYER2
62
2
10
142.000000000000
20
179.500000000000
11
142.000000000000
21
177.000000000000
0
LINE
8
LAYER2
62
2
10
142.000000000000
20
174.500000000000
11
142.000000000000
21
172.000000000000
0
LINE
8
LAYER2
62
2
10
142.000000000000
20
169.500000000000
11
140.000000000000
21
169.500000000000
0
LINE
8
LAYER2
62
2
10
140.000000000000
20
244.500000000000
11
142.000000000000
21
244.500000000000
0
LINE
8
LAYER2
62
2
10
165.000000000000
20
169.500000000000
11
165.000000000000
21
172.000000000000
0
LINE
8
LAYER2
62
2
10
165.000000000000
20
174.500000000000
11
165.000000000000
21
177.000000000000
0
LINE
8
LAYER2
62
2
10
165.000000000000
20
179.500000000000
11
165.000000000000
21
182.000000000000
0
LINE
8
LAYER2
62
2
10
165.000000000000
20
184.500000000000
11
165.000000000000
21
187.000000000000
0
LINE
8
LAYER2
62
2
10
165.000000000000
20
189.500000000000
11
165.000000000000
21
192.000000000000
0
LINE
8
LAYER2
62
2
10
165.000000000000
20
194.500000000000
11
165.000000000000
21
197.000000000000
0
LINE
8
LAYER2
62
2
10
165.000000000000
20
199.500000000000
11
165.000000000000
21
202.000000000000
0
LINE
8
LAYER2
62
2
10
165.000000000000
20
204.500000000000
11
165.000000000000
21
207.000000000000
0
LINE
8
LAYER2
62
2
10
165.000000000000
20
209.500000000000
11
165.000000000000
21
212.000000000000
0
LINE
8
LAYER2
62
2
10
165.000000000000
20
214.500000000000
11
165.000000000000
21
217.000000000000
0
LINE
8
LAYER2
62
2
10
165.000000000000
20
219.500000000000
11
165.000000000000
21
222.000000000000
0
LINE
8
LAYER2
62
2
10
165.000000000000
20
224.500000000000
11
165.000000000000
21
227.000000000000
0
LINE
8
LAYER2
62
2
10
165.000000000000
20
229.500000000000
11
165.000000000000
21
232.000000000000
0
LINE
8
LAYER2
62
2
10
165.000000000000
20
234.500000000000
11
165.000000000000
21
237.000000000000
0
LINE
8
LAYER2
62
2
10
165.000000000000
20
239.500000000000
11
165.000000000000
21
242.000000000000
0
LINE
8
LAYER2
62
2
10
167.000000000000
20
244.500000000000
11
167.000000000000
21
242.000000000000
0
LINE
8
LAYER2
62
2
10
167.000000000000
20
239.500000000000
11
167.000000000000
21
237.000000000000
0
LINE
8
LAYER2
62
2
10
167.000000000000
20
234.500000000000
11
167.000000000000
21
232.000000000000
0
LINE
8
LAYER2
62
2
10
167.000000000000
20
229.500000000000
11
167.000000000000
21
227.000000000000
0
LINE
8
LAYER2
62
2
10
167.000000000000
20
224.500000000000
11
167.000000000000
21
222.000000000000
0
LINE
8
LAYER2
62
2
10
167.000000000000
20
219.500000000000
11
167.000000000000
21
217.000000000000
0
LINE
8
LAYER2
62
2
10
167.000000000000
20
214.500000000000
11
167.000000000000
21
212.000000000000
0
LINE
8
LAYER2
62
2
10
167.000000000000
20
209.500000000000
11
167.000000000000
21
207.000000000000
0
LINE
8
LAYER2
62
2
10
167.000000000000
20
204.500000000000
11
167.000000000000
21
202.000000000000
0
LINE
8
LAYER2
62
2
10
167.000000000000
20
199.500000000000
11
167.000000000000
21
197.000000000000
0
LINE
8
LAYER2
62
2
10
167.000000000000
20
194.500000000000
11
167.000000000000
21
192.000000000000
0
LINE
8
LAYER2
62
2
10
167.000000000000
20
189.500000000000
11
167.000000000000
21
187.000000000000
0
LINE
8
LAYER2
62
2
10
167.000000000000
20
184.500000000000
11
167.000000000000
21
182.000000000000
0
LINE
8
LAYER2
62
2
10
167.000000000000
20
179.500000000000
11
167.000000000000
21
177.000000000000
0
LINE
8
LAYER2
62
2
10
167.000000000000
20
174.500000000000
11
167.000000000000
21
172.000000000000
0
LINE
8
LAYER2
62
2
10
167.000000000000
20
169.500000000000
11
165.000000000000
21
169.500000000000
0
LINE
8
LAYER2
62
2
10
165.000000000000
20
244.500000000000
11
167.000000000000
21
244.500000000000
0
LINE
8
LAYER2
62
2
10
190.000000000000
20
169.500000000000
11
190.000000000000
21
172.000000000000
0
LINE
8
LAYER2
62
2
10
190.000000000000
20
174.500000000000
11
190.000000000000
21
177.000000000000
0
LINE
8
LAYER2
62
2
10
190.000000000000
20
179.500000000000
11
190.000000000000
21
182.000000000000
0
LINE
8
LAYER2
62
2
10
190.000000000000
20
184.500000000000
11
190.000000000000
21
187.000000000000
0
LINE
8
LAYER2
62
2
10
190.000000000000
20
189.500000000000
11
190.000000000000
21
192.000000000000
0
LINE
8
LAYER2
62
2
10
190.000000000000
20
194.500000000000
11
190.000000000000
21
197.000000000000
0
LINE
8
LAYER2
62
2
10
190.000000000000
20
199.500000000000
11
190.000000000000
21
202.000000000000
0
LINE
8
LAYER2
62
2
10
190.000000000000
20
204.500000000000
11
190.000000000000
21
207.000000000000
0
LINE
8
LAYER2
62
2
10
190.000000000000
20
209.500000000000
11
190.000000000000
21
212.000000000000
0
LINE
8
LAYER2
62
2
10
190.000000000000
20
214.500000000000
11
190.000000000000
21
217.000000000000
0
LINE
8
LAYER2
62
2
10
190.000000000000
20
219.500000000000
11
190.000000000000
21
222.000000000000
0
LINE
8
LAYER2
62
2
10
190.000000000000
20
224.500000000000
11
190.000000000000
21
227.000000000000
0
LINE
8
LAYER2
62
2
10
190.000000000000
20
229.500000000000
11
190.000000000000
21
232.000000000000
0
LINE
8
LAYER2
62
2
10
190.000000000000
20
234.500000000000
11
190.000000000000
21
237.000000000000
0
LINE
8
LAYER2
62
2
10
190.000000000000
20
239.500000000000
11
190.000000000000
21
242.000000000000
0
LINE
8
LAYER2
62
2
10
192.000000000000
20
244.500000000000
11
192.000000000000
21
242.000000000000
0
LINE
8
LAYER2
62
2
10
192.000000000000
20
239.500000000000
11
192.000000000000
21
237.000000000000
0
LINE
8
LAYER2
62
2
10
192.000000000000
20
234.500000000000
11
192.000000000000
21
232.000000000000
0
LINE
8
LAYER2
62
2
10
192.000000000000
20
229.500000000000
11
192.000000000000
21
227.000000000000
0
LINE
8
LAYER2
62
2
10
192.000000000000
20
224.500000000000
11
192.000000000000
21
222.000000000000
0
LINE
8
LAYER2
62
2
10
192.000000000000
20
219.500000000000
11
192.000000000000
21
217.000000000000
0
LINE
8
LAYER2
62
2
10
192.000000000000
20
214.500000000000
11
192.000000000000
21
212.000000000000
0
LINE
8
LAYER2
62
2
10
192.000000000000
20
209.500000000000
11
192.000000000000
21
207.000000000000
0
LINE
8
LAYER2
62
2
10
192.000000000000
20
204.500000000000
11
192.000000000000
21
202.000000000000
0
LINE
8
LAYER2
62
2
10
192.000000000000
20
199.500000000000
11
192.000000000000
21
197.000000000000
0
LINE
8
LAYER2
62
2
10
192.000000000000
20
194.500000000000
11
192.000000000000
21
192.000000000000
0
LINE
8
LAYER2
62
2
10
192.000000000000
20
189.500000000000
11
192.000000000000
21
187.000000000000
0
LINE
8
LAYER2
62
2
10
192.000000000000
20
184.500000000000
11
192.000000000000
21
182.000000000000
0
LINE
8
LAYER2
62
2
10
192.000000000000
20
179.500000000000
11
192.000000000000
21
177.000000000000
0
LINE
8
LAYER2
62
2
10
192.000000000000
20
174.500000000000
11
192.000000000000
21
172.000000000000
0
LINE
8
LAYER2
62
2
10
192.000000000000
20
169.500000000000
11
190.000000000000
21
169.500000000000
0
LINE
8
LAYER2
62
2
10
190.000000000000
20
244.500000000000
11
192.000000000000
21
244.500000000000
0
LINE
8
LAYER2
62
2
10
215.000000000000
20
169.500000000000
11
215.000000000000
21
172.000000000000
0
LINE
8
LAYER2
62
2
10
215.000000000000
20
174.500000000000
11
215.000000000000
21
177.000000000000
0
LINE
8
LAYER2
62
2
10
215.000000000000
20
179.500000000000
11
215.000000000000
21
182.000000000000
0
LINE
8
LAYER2
62
2
10
215.000000000000
20
184.500000000000
11
215.000000000000
21
187.000000000000
0
LINE
8
LAYER2
62
2
10
215.000000000000
20
189.500000000000
11
215.000000000000
21
192.000000000000
0
LINE
8
LAYER2
62
2
10
215.000000000000
20
194.500000000000
11
215.000000000000
21
197.000000000000
0
LINE
8
LAYER2
62
2
10
215.000000000000
20
199.500000000000
11
215.000000000000
21
202.000000000000
0
LINE
8
LAYER2
62
2
10
215.000000000000
20
204.500000000000
11
215.000000000000
21
207.000000000000
0
LINE
8
LAYER2
62
2
10
215.000000000000
20
209.500000000000
11
215.000000000000
21
212.000000000000
0
LINE
8
LAYER2
62
2
10
215.000000000000
20
214.500000000000
11
215.000000000000
21
217.000000000000
0
LINE
8
LAYER2
62
2
10
215.000000000000
20
219.500000000000
11
215.000000000000
21
222.000000000000
0
LINE
8
LAYER2
62
2
10
215.000000000000
20
224.500000000000
11
215.000000000000
21
227.000000000000
0
LINE
8
LAYER2
62
2
10
215.000000000000
20
229.500000000000
11
215.000000000000
21
232.000000000000
0
LINE
8
LAYER2
62
2
10
215.000000000000
20
234.500000000000
11
215.000000000000
21
237.000000000000
0
LINE
8
LAYER2
62
2
10
215.000000000000
20
239.500000000000
11
215.000000000000
21
242.000000000000
0
LINE
8
LAYER2
62
2
10
217.000000000000
20
244.500000000000
11
217.000000000000
21
242.000000000000
0
LINE
8
LAYER2
62
2
10
217.000000000000
20
239.500000000000
11
217.000000000000
21
237.000000000000
0
LINE
8
LAYER2
62
2
10
217.000000000000
20
234.500000000000
11
217.000000000000
21
232.000000000000
0
LINE
8
LAYER2
62
2
10
217.000000000000
20
229.500000000000
11
217.000000000000
21
227.000000000000
0
LINE
8
LAYER2
62
2
10
217.000000000000
20
224.500000000000
11
217.000000000000
21
222.000000000000
0
LINE
8
LAYER2
62
2
10
217.000000000000
20
219.500000000000
11
217.000000000000
21
217.000000000000
0
LINE
8
LAYER2
62
2
10
217.000000000000
20
214.500000000000
11
217.000000000000
21
212.000000000000
0
LINE
8
LAYER2
62
2
10
217.000000000000
20
209.500000000000
11
217.000000000000
21
207.000000000000
0
LINE
8
LAYER2
62
2
10
217.000000000000
20
204.500000000000
11
217.000000000000
21
202.000000000000
0
LINE
8
LAYER2
62
2
10
217.000000000000
20
199.500000000000
11
217.000000000000
21
197.000000000000
0
LINE
8
LAYER2
62
2
10
217.000000000000
20
194.500000000000
11
217.000000000000
21
192.000000000000
0
LINE
8
LAYER2
62
2
10
217.000000000000
20
189.500000000000
11
217.000000000000
21
187.000000000000
0
LINE
8
LAYER2
62
2
10
217.000000000000
20
184.500000000000
11
217.000000000000
21
182.000000000000
0
LINE
8
LAYER2
62
2
10
217.000000000000
20
179.500000000000
11
217.000000000000
21
177.000000000000
0
LINE
8
LAYER2
62
2
10
217.000000000000
20
174.500000000000
11
217.000000000000
21
172.000000000000
0
LINE
8
LAYER2
62
2
10
217.000000000000
20
169.500000000000
11
215.000000000000
21
169.500000000000
0
LINE
8
LAYER2
62
2
10
215.000000000000
20
244.500000000000
11
217.000000000000
21
244.500000000000
0
LINE
8
LAYER2
62
2
10
240.000000000000
20
169.500000000000
11
240.000000000000
21
172.000000000000
0
LINE
8
LAYER2
62
2
10
240.000000000000
20
174.500000000000
11
240.000000000000
21
177.000000000000
0
LINE
8
LAYER2
62
2
10
240.000000000000
20
179.500000000000
11
240.000000000000
21
182.000000000000
0
LINE
8
LAYER2
62
2
10
240.000000000000
20
184.500000000000
11
240.000000000000
21
187.000000000000
0
LINE
8
LAYER2
62
2
10
240.000000000000
20
189.500000000000
11
240.000000000000
21
192.000000000000
0
LINE
8
LAYER2
62
2
10
240.000000000000
20
194.500000000000
11
240.000000000000
21
197.000000000000
0
LINE
8
LAYER2
62
2
10
240.000000000000
20
199.500000000000
11
240.000000000000
21
202.000000000000
0
LINE
8
LAYER2
62
2
10
240.000000000000
20
204.500000000000
11
240.000000000000
21
207.000000000000
0
LINE
8
LAYER2
62
2
10
240.000000000000
20
209.500000000000
11
240.000000000000
21
212.000000000000
0
LINE
8
LAYER2
62
2
10
240.000000000000
20
214.500000000000
11
240.000000000000
21
217.000000000000
0
LINE
8
LAYER2
62
2
10
240.000000000000
20
219.500000000000
11
240.000000000000
21
222.000000000000
0
LINE
8
LAYER2
62
2
10
240.000000000000
20
224.500000000000
11
240.000000000000
21
227.000000000000
0
LINE
8
LAYER2
62
2
10
240.000000000000
20
229.500000000000
11
240.000000000000
21
232.000000000000
0
LINE
8
LAYER2
62
2
10
240.000000000000
20
234.500000000000
11
240.000000000000
21
237.000000000000
0
LINE
8
LAYER2
62
2
10
240.000000000000
20
239.500000000000
11
240.000000000000
21
242.000000000000
0
LINE
8
LAYER2
62
2
10
242.000000000000
20
244.500000000000
11
242.000000000000
21
242.000000000000
0
LINE
8
LAYER2
62
2
10
242.000000000000
20
239.500000000000
11
242.000000000000
21
237.000000000000
0
LINE
8
LAYER2
62
2
10
242.000000000000
20
234.500000000000
11
242.000000000000
21
232.000000000000
0
LINE
8
LAYER2
62
2
10
242.000000000000
20
229.500000000000
11
242.000000000000
21
227.000000000000
0
LINE
8
LAYER2
62
2
10
242.000000000000
20
224.500000000000
11
242.000000000000
21
222.000000000000
0
LINE
8
LAYER2
62
2
10
242.000000000000
20
219.500000000000
11
242.000000000000
21
217.000000000000
0
LINE
8
LAYER2
62
2
10
242.000000000000
20
214.500000000000
11
242.000000000000
21
212.000000000000
0
LINE
8
LAYER2
62
2
10
242.000000000000
20
209.500000000000
11
242.000000000000
21
207.000000000000
0
LINE
8
LAYER2
62
2
10
242.000000000000
20
204.500000000000
11
242.000000000000
21
202.000000000000
0
LINE
8
LAYER2
62
2
10
242.000000000000
20
199.500000000000
11
242.000000000000
21
197.000000000000
0
LINE
8
LAYER2
62
2
10
242.000000000000
20
194.500000000000
11
242.000000000000
21
192.000000000000
0
LINE
8
LAYER2
62
2
10
242.000000000000
20
189.500000000000
11
242.000000000000
21
187.000000000000
0
LINE
8
LAYER2
62
2
10
242.000000000000
20
184.500000000000
11
242.000000000000
21
182.000000000000
0
LINE
8
LAYER2
62
2
10
242.000000000000
20
179.500000000000
11
242.000000000000
21
177.000000000000
0
LINE
8
LAYER2
62
2
10
242.000000000000
20
174.500000000000
11
242.000000000000
21
172.000000000000
0
LINE
8
LAYER2
62
2
10
242.000000000000
20
169.500000000000
11
240.000000000000
21
169.500000000000
0
LINE
8
LAYER2
62
2
10
240.000000000000
20
244.500000000000
11
242.000000000000
21
244.500000000000
0
LINE
8
LAYER3
62
3
10
10.500000000000
20
248.500000000000
11
10.500000000000
21
252.500000000000
0
LINE
8
LAYER3
62
3
10
10.500000000000
20
252.500000000000
11
265.000000000000
21
252.500000000000
0
LINE
8
LAYER3
62
3
10
265.000000000000
20
252.500000000000
11
265.000000000000
21
248.500000000000
0
LINE
8
LAYER3
62
3
10
265.000000000000
20
248.500000000000
11
10.500000000000
21
248.500000000000
0
LINE
8
LAYER3
62
3
10
14.500000000000
20
20.000000000000
11
10.500000000000
21
20.000000000000
0
LINE
8
LAYER3
62
3
10
10.500000000000
20
20.000000000000
11
10.500000000000
21
252.500000000000
0
LINE
8
LAYER3
62
3
10
10.500000000000
20
252.500000000000
11
14.500000000000
21
252.500000000000
0
LINE
8
LAYER3
62
3
10
14.500000000000
20
252.500000000000
11
14.500000000000
21
20.000000000000
0
LINE
8
LAYER3
62
3
10
103.500000000000
20
161.500000000000
11
103.500000000000
21
165.500000000000
0
LINE
8
LAYER3
62
3
10
103.500000000000
20
165.500000000000
11
257.000000000000
21
165.500000000000
0
LINE
8
LAYER3
62
3
10
257.000000000000
20
165.500000000000
11
257.000000000000
21
161.500000000000
0
LINE
8
LAYER3
62
3
10
257.000000000000
20
161.500000000000
11
103.500000000000
21
161.500000000000
0
LINE
8
LAYER3
62
3
10
101.500000000000
20
28.000000000000
11
97.500000000000
21
28.000000000000
0
LINE
8
LAYER3
62
3
10
97.500000000000
20
28.000000000000
11
97.500000000000
21
159.500000000000
0
LINE
8
LAYER3
62
3
10
97.500000000000
20
159.500000000000
11
101.500000000000
21
159.500000000000
0
LINE
8
LAYER3
62
3
10
101.500000000000
20
159.500000000000
11
101.500000000000
21
28.000000000000
0
LINE
8
LAYER4
62
4
10
257.000000000000
20
159.500000000000
11
257.000000000000
21
167.500000000000
0
LINE
8
LAYER4
62
4
10
257.000000000000
20
167.500000000000
11
265.000000000000
21
167.500000000000
0
LINE
8
LAYER4
62
4
10
265.000000000000
20
167.500000000000
11
265.000000000000
21
159.500000000000
0
LINE
8
LAYER4
62
4
10
265.000000000000
20
159.500000000000
11
257.000000000000
21
159.500000000000
0
LINE
8
LAYER4
62
4
10
103.500000000000
20
159.500000000000
11
95.500000000000
21
159.500000000000
0
LINE
8
LAYER4
62
4
10
95.500000000000
20
159.500000000000
11
95.500000000000
21
167.500000000000
0
LINE
8
LAYER4
62
4
10
95.500000000000
20
167.500000000000
11
103.500000000000
21
167.500000000000
0
LINE
8
LAYER4
62
4
10
103.500000000000
20
167.500000000000
11
103.500000000000
21
159.500000000000
0
LINE
8
LAYER4
62
4
10
103.500000000000
20
20.000000000000
11
95.500000000000
21
20.000000000000
0
LINE
8
LAYER4
62
4
10
95.500000000000
20
20.000000000000
11
95.500000000000
21
28.000000000000
0
LINE
8
LAYER4
62
4
10
95.500000000000
20
28.000000000000
11
103.500000000000
21
28.000000000000
0
LINE
8
LAYER4
62
4
10
103.500000000000
20
28.000000000000
11
103.500000000000
21
20.000000000000
0
LINE
8
LAYER5
62
5
10
13.500000000000
20
245.000000000000
11
13.500000000000
21
249.000000000000
0
LINE
8
LAYER5
62
5
10
13.500000000000
20
249.000000000000
11
265.000000000000
21
249.000000000000
0
LINE
8
LAYER5
62
5
10
265.000000000000
20
249.000000000000
11
265.000000000000
21
245.000000000000
0
LINE
8
LAYER5
62
5
10
265.000000000000
20
245.000000000000
11
13.500000000000
21
245.000000000000
0
LINE
8
LAYER5
62
5
10
18.000000000000
20
20.000000000000
11
14.000000000000
21
20.000000000000
0
LINE
8
LAYER5
62
5
10
14.000000000000
20
20.000000000000
11
14.000000000000
21
245.000000000000
0
LINE
8
LAYER5
62
5
10
14.000000000000
20
245.000000000000
11
18.000000000000
21
245.000000000000
0
LINE
8
LAYER5
62
5
10
18.000000000000
20
245.000000000000
11
18.000000000000
21
20.000000000000
0
LINE
8
LAYER5
62
5
10
103.500000000000
20
161.500000000000
11
103.500000000000
21
165.500000000000
0
LINE
8
LAYER5
62
5
10
103.500000000000
20
165.500000000000
11
257.000000000000
21
165.500000000000
0
LINE
8
LAYER5
62
5
10
257.000000000000
20
165.500000000000
11
257.000000000000
21
161.500000000000
0
LINE
8
LAYER5
62
5
10
257.000000000000
20
161.500000000000
11
103.500000000000
21
161.500000000000
0
LINE
8
LAYER5
62
5
10
101.500000000000
20
28.000000000000
11
97.500000000000
21
28.000000000000
0
LINE
8
LAYER5
62
5
10
97.500000000000
20
28.000000000000
11
97.500000000000
21
159.500000000000
0
LINE
8
LAYER5
62
5
10
97.500000000000
20
159.500000000000
11
101.500000000000
21
159.500000000000
0
LINE
8
LAYER5
62
5
10
101.500000000000
20
159.500000000000
11
101.500000000000
21
28.000000000000
0
LINE
8
LAYER6
62
6
10
247.875000000000
20
162.150001525879
11
247.875000000000
21
164.849998474121
0
LINE
8
LAYER6
62
6
10
247.875000000000
20
164.849998474121
11
243.875000000000
21
164.849998474121
0
LINE
8
LAYER6
62
6
10
243.875000000000
20
164.849998474121
11
243.875000000000
21
162.150001525879
0
LINE
8
LAYER6
62
6
10
243.875000000000
20
162.150001525879
11
247.875000000000
21
162.150001525879
0
LINE
8
LAYER6
62
6
10
234.750000000000
20
162.150001525879
11
234.750000000000
21
164.849998474121
0
LINE
8
LAYER6
62
6
10
234.750000000000
20
164.849998474121
11
230.750000000000
21
164.849998474121
0
LINE
8
LAYER6
62
6
10
230.750000000000
20
164.849998474121
11
230.750000000000
21
162.150001525879
0
LINE
8
LAYER6
62
6
10
230.750000000000
20
162.150001525879
11
234.750000000000
21
162.150001525879
0
LINE
8
LAYER6
62
6
10
221.625000000000
20
162.150001525879
11
221.625000000000
21
164.849998474121
0
LINE
8
LAYER6
62
6
10
221.625000000000
20
164.849998474121
11
217.625000000000
21
164.849998474121
0
LINE
8
LAYER6
62
6
10
217.625000000000
20
164.849998474121
11
217.625000000000
21
162.150001525879
0
LINE
8
LAYER6
62
6
10
217.625000000000
20
162.150001525879
11
221.625000000000
21
162.150001525879
0
LINE
8
LAYER6
62
6
10
208.500000000000
20
162.150001525879
11
208.500000000000
21
164.849998474121
0
LINE
8
LAYER6
62
6
10
208.500000000000
20
164.849998474121
11
204.500000000000
21
164.849998474121
0
LINE
8
LAYER6
62
6
10
204.500000000000
20
164.849998474121
11
204.500000000000
21
162.150001525879
0
LINE
8
LAYER6
62
6
10
204.500000000000
20
162.150001525879
11
208.500000000000
21
162.150001525879
0
LINE
8
LAYER6
62
6
10
195.375000000000
20
162.150001525879
11
195.375000000000
21
164.849998474121
0
LINE
8
LAYER6
62
6
10
195.375000000000
20
164.849998474121
11
191.375000000000
21
164.849998474121
0
LINE
8
LAYER6
62
6
10
191.375000000000
20
164.849998474121
11
191.375000000000
21
162.150001525879
0
LINE
8
LAYER6
62
6
10
191.375000000000
20
162.150001525879
11
195.375000000000
21
162.150001525879
0
LINE
8
LAYER6
62
6
10
182.250000000000
20
162.150001525879
11
182.250000000000
21
164.849998474121
0
LINE
8
LAYER6
62
6
10
182.250000000000
20
164.849998474121
11
178.250000000000
21
164.849998474121
0
LINE
8
LAYER6
62
6
10
178.250000000000
20
164.849998474121
11
178.250000000000
21
162.150001525879
0
LINE
8
LAYER6
62
6
10
178.250000000000
20
162.150001525879
11
182.250000000000
21
162.150001525879
0
LINE
8
LAYER6
62
6
10
169.125000000000
20
162.150001525879
11
169.125000000000
21
164.849998474121
0
LINE
8
LAYER6
62
6
10
169.125000000000
20
164.849998474121
11
165.125000000000
21
164.849998474121
0
LINE
8
LAYER6
62
6
10
165.125000000000
20
164.849998474121
11
165.125000000000
21
162.150001525879
0
LINE
8
LAYER6
62
6
10
165.125000000000
20
162.150001525879
11
169.125000000000
21
162.150001525879
0
LINE
8
LAYER6
62
6
10
156.000000000000
20
162.150001525879
11
156.000000000000
21
164.849998474121
0
LINE
8
LAYER6
62
6
10
156.000000000000
20
164.849998474121
11
152.000000000000
21
164.849998474121
0
LINE
8
LAYER6
62
6
10
152.000000000000
20
164.849998474121
11
152.000000000000
21
162.150001525879
0
LINE
8
LAYER6
62
6
10
152.000000000000
20
162.150001525879
11
156.000000000000
21
162.150001525879
0
LINE
8
LAYER6
62
6
10
142.875000000000
20
162.150001525879
11
142.875000000000
21
164.849998474121
0
LINE
8
LAYER6
62
6
10
142.875000000000
20
164.849998474121
11
138.875000000000
21
164.849998474121
0
LINE
8
LAYER6
62
6
10
138.875000000000
20
164.849998474121
11
138.875000000000
21
162.150001525879
0
LINE
8
LAYER6
62
6
10
138.875000000000
20
162.150001525879
11
142.875000000000
21
162.150001525879
0
LINE
8
LAYER6
62
6
10
129.750000000000
20
162.150001525879
11
129.750000000000
21
164.849998474121
0
LINE
8
LAYER6
62
6
10
129.750000000000
20
164.849998474121
11
125.750000000000
21
164.849998474121
0
LINE
8
LAYER6
62
6
10
125.750000000000
20
164.849998474121
11
125.750000000000
21
162.150001525879
0
LINE
8
LAYER6
62
6
10
125.750000000000
20
162.150001525879
11
129.750000000000
21
162.150001525879
0
LINE
8
LAYER6
62
6
10
116.625000000000
20
162.150001525879
11
116.625000000000
21
164.849998474121
0
LINE
8
LAYER6
62
6
10
116.625000000000
20
164.849998474121
11
112.625000000000
21
164.849998474121
0
LINE
8
LAYER6
62
6
10
112.625000000000
20
164.849998474121
11
112.625000000000
21
162.150001525879
0
LINE
8
LAYER6
62
6
10
112.625000000000
20
162.150001525879
11
116.625000000000
21
162.150001525879
0
LINE
8
LAYER6
62
6
10
100.850006103516
20
149.949996948242
11
98.149993896484
21
149.949996948242
0
LINE
8
LAYER6
62
6
10
98.149993896484
20
149.949996948242
11
98.149993896484
21
145.949996948242
0
LINE
8
LAYER6
62
6
10
98.149993896484
20
145.949996948242
11
100.850006103516
21
145.949996948242
0
LINE
8
LAYER6
62
6
10
100.850006103516
20
145.949996948242
11
100.850006103516
21
149.949996948242
0
LINE
8
LAYER6
62
6
10
100.850006103516
20
136.400001525879
11
98.149993896484
21
136.400001525879
0
LINE
8
LAYER6
62
6
10
98.149993896484
20
136.400001525879
11
98.149993896484
21
132.400001525879
0
LINE
8
LAYER6
62
6
10
98.149993896484
20
132.400001525879
11
100.850006103516
21
132.400001525879
0
LINE
8
LAYER6
62
6
10
100.850006103516
20
132.400001525879
11
100.850006103516
21
136.400001525879
0
LINE
8
LAYER6
62
6
10
100.850006103516
20
122.850006103516
11
98.149993896484
21
122.850006103516
0
LINE
8
LAYER6
62
6
10
98.149993896484
20
122.850006103516
11
98.149993896484
21
118.850006103516
0
LINE
8
LAYER6
62
6
10
98.149993896484
20
118.850006103516
11
100.850006103516
21
118.850006103516
0
LINE
8
LAYER6
62
6
10
100.850006103516
20
118.850006103516
11
100.850006103516
21
122.850006103516
0
LINE
8
LAYER6
62
6
10
100.850006103516
20
109.300003051758
11
98.149993896484
21
109.300003051758
0
LINE
8
LAYER6
62
6
10
98.149993896484
20
109.300003051758
11
98.149993896484
21
105.300003051758
0
LINE
8
LAYER6
62
6
10
98.149993896484
20
105.300003051758
11
100.850006103516
21
105.300003051758
0
LINE
8
LAYER6
62
6
10
100.850006103516
20
105.300003051758
11
100.850006103516
21
109.300003051758
0
LINE
8
LAYER6
62
6
10
100.850006103516
20
95.750000000000
11
98.149993896484
21
95.750000000000
0
LINE
8
LAYER6
62
6
10
98.149993896484
20
95.750000000000
11
98.149993896484
21
91.750000000000
0
LINE
8
LAYER6
62
6
10
98.149993896484
20
91.750000000000
11
100.850006103516
21
91.750000000000
0
LINE
8
LAYER6
62
6
10
100.850006103516
20
91.750000000000
11
100.850006103516
21
95.750000000000
0
LINE
8
LAYER6
62
6
10
100.850006103516
20
82.199996948242
11
98.149993896484
21
82.199996948242
0
LINE
8
LAYER6
62
6
10
98.149993896484
20
82.199996948242
11
98.149993896484
21
78.199996948242
0
LINE
8
LAYER6
62
6
10
98.149993896484
20
78.199996948242
11
100.850006103516
21
78.199996948242
0
LINE
8
LAYER6
62
6
10
100.850006103516
20
78.199996948242
11
100.850006103516
21
82.199996948242
0
LINE
8
LAYER6
62
6
10
100.850006103516
20
68.650009155273
11
98.149993896484
21
68.650009155273
0
LINE
8
LAYER6
62
6
10
98.149993896484
20
68.650009155273
11
98.149993896484
21
64.650009155273
0
LINE
8
LAYER6
62
6
10
98.149993896484
20
64.650009155273
11
100.850006103516
21
64.650009155273
0
LINE
8
LAYER6
62
6
10
100.850006103516
20
64.650009155273
11
100.850006103516
21
68.650009155273
0
LINE
8
LAYER6
62
6
10
100.850006103516
20
55.100006103516
11
98.149993896484
21
55.100006103516
0
LINE
8
LAYER6
62
6
10
98.149993896484
20
55.100006103516
11
98.149993896484
21
51.100006103516
0
LINE
8
LAYER6
62
6
10
98.149993896484
20
51.100006103516
11
100.850006103516
21
51.100006103516
0
LINE
8
LAYER6
62
6
10
100.850006103516
20
51.100006103516
11
100.850006103516
21
55.100006103516
0
LINE
8
LAYER6
62
6
10
100.850006103516
20
41.550003051758
11
98.149993896484
21
41.550003051758
0
LINE
8
LAYER6
62
6
10
98.149993896484
20
41.550003051758
11
98.149993896484
21
37.550003051758
0
LINE
8
LAYER6
62
6
10
98.149993896484
20
37.550003051758
11
100.850006103516
21
37.550003051758
0
LINE
8
LAYER6
62
6
10
100.850006103516
20
37.550003051758
11
100.850006103516
21
41.550003051758
0
LINE
8
LAYER7
62
7
10
265.000000000000
20
253.000000000000
11
265.000000000000
21
63.000000000000
0
LINE
8
LAYER7
62
7
10
265.000000000000
20
63.000000000000
11
10.000000000000
21
63.000000000000
0
LINE
8
LAYER7
62
7
10
10.000000000000
20
63.000000000000
11
10.000000000000
21
253.000000000000
0
LINE
8
LAYER7
62
7
10
10.000000000000
20
253.000000000000
11
265.000000000000
21
253.000000000000
0
LINE
8
LAYER9
62
8
10
58.286437988281
20
21.000000000000
11
58.286437988281
21
179.713562011719
0
ARC
8
LAYER9
62
8
10
83.286437988281
20
179.713562011719
40
25.000000000000
50
90.000000000000
51
180.000000000000
0
LINE
8
LAYER9
62
8
10
83.286437988281
20
204.713562011719
11
265.000000000000
21
204.713562011719
0
LINE
8
LAYER14
62
8
10
43.511437988281
20
36.400004632448
11
43.848937988281
21
37.000004632448
0
LINE
8
LAYER14
62
8
10
43.848937988281
20
37.000004632448
11
43.848937988281
21
35.000004632448
0
LINE
8
LAYER14
62
8
10
43.623937988281
20
35.000004632448
11
44.073937988281
21
35.000004632448
0
LINE
8
LAYER14
62
8
10
43.286437988281
20
61.700004632448
11
43.455187988281
21
62.000004632448
0
LINE
8
LAYER14
62
8
10
43.455187988281
20
62.000004632448
11
44.242687988281
21
62.000004632448
0
LINE
8
LAYER14
62
8
10
44.242687988281
20
62.000004632448
11
44.411437988281
21
61.700004632448
0
LINE
8
LAYER14
62
8
10
44.411437988281
20
61.700004632448
11
44.411437988281
21
61.400004632448
0
LINE
8
LAYER14
62
8
10
44.411437988281
20
61.400004632448
11
43.286437988281
21
60.300004632448
0
LINE
8
LAYER14
62
8
10
43.286437988281
20
60.300004632448
11
43.286437988281
21
60.000004632448
0
LINE
8
LAYER14
62
8
10
43.286437988281
20
60.000004632448
11
44.411437988281
21
60.000004632448
0
LINE
8
LAYER14
62
8
10
44.411437988281
20
60.000004632448
11
44.411437988281
21
60.300004632448
0
LINE
8
LAYER14
62
8
10
43.286437988281
20
86.800004632448
11
43.398937988281
21
87.000004632448
0
LINE
8
LAYER14
62
8
10
43.398937988281
20
87.000004632448
11
44.298937988281
21
87.000004632448
0
LINE
8
LAYER14
62
8
10
44.298937988281
20
87.000004632448
11
44.411437988281
21
86.800004632448
0
LINE
8
LAYER14
62
8
10
44.411437988281
20
86.800004632448
11
44.411437988281
21
86.400004632448
0
LINE
8
LAYER14
62
8
10
44.411437988281
20
86.400004632448
11
44.298937988281
21
86.200004632448
0
LINE
8
LAYER14
62
8
10
44.298937988281
20
86.200004632448
11
43.623937988281
21
86.200004632448
0
LINE
8
LAYER14
62
8
10
44.298937988281
20
86.200004632448
11
44.411437988281
21
86.000004632448
0
LINE
8
LAYER14
62
8
10
44.411437988281
20
86.000004632448
11
44.411437988281
21
85.200004632448
0
LINE
8
LAYER14
62
8
10
44.411437988281
20
85.200004632448
11
44.298937988281
21
85.000004632448
0
LINE
8
LAYER14
62
8
10
44.298937988281
20
85.000004632448
11
43.398937988281
21
85.000004632448
0
LINE
8
LAYER14
62
8
10
43.398937988281
20
85.000004632448
11
43.286437988281
21
85.200004632448
0
LINE
8
LAYER14
62
8
10
43.286437988281
20
112.000004632448
11
43.286437988281
21
111.200004632448
0
LINE
8
LAYER14
62
8
10
43.286437988281
20
111.200004632448
11
44.411437988281
21
111.200004632448
0
LINE
8
LAYER14
62
8
10
44.411437988281
20
112.000004632448
11
44.411437988281
21
110.000004632448
0
LINE
8
LAYER14
62
8
10
44.411437988281
20
137.000004632448
11
43.286437988281
21
137.000004632448
0
LINE
8
LAYER14
62
8
10
43.286437988281
20
137.000004632448
11
43.286437988281
21
136.200004632448
0
LINE
8
LAYER14
62
8
10
43.286437988281
20
136.200004632448
11
44.242687988281
21
136.200004632448
0
LINE
8
LAYER14
62
8
10
44.242687988281
20
136.200004632448
11
44.411437988281
21
135.900004632448
0
LINE
8
LAYER14
62
8
10
44.411437988281
20
135.900004632448
11
44.411437988281
21
135.300004632448
0
LINE
8
LAYER14
62
8
10
44.411437988281
20
135.300004632448
11
44.242687988281
21
135.000004632448
0
LINE
8
LAYER14
62
8
10
44.242687988281
20
135.000004632448
11
43.455187988281
21
135.000004632448
0
LINE
8
LAYER14
62
8
10
43.455187988281
20
135.000004632448
11
43.286437988281
21
135.300004632448
0
LINE
8
LAYER14
62
8
10
44.411437988281
20
162.122086435728
11
44.242687988281
21
162.122086435728
0
LINE
8
LAYER14
62
8
10
44.242687988281
20
162.122086435728
11
43.286437988281
21
161.622086435728
0
LINE
8
LAYER14
62
8
10
43.286437988281
20
161.622086435728
11
43.286437988281
21
160.422086435728
0
LINE
8
LAYER14
62
8
10
43.286437988281
20
160.422086435728
11
43.455187988281
21
160.122086435728
0
LINE
8
LAYER14
62
8
10
43.455187988281
20
160.122086435728
11
44.242687988281
21
160.122086435728
0
LINE
8
LAYER14
62
8
10
44.242687988281
20
160.122086435728
11
44.411437988281
21
160.422086435728
0
LINE
8
LAYER14
62
8
10
44.411437988281
20
160.422086435728
11
44.411437988281
21
161.022086435728
0
LINE
8
LAYER14
62
8
10
44.411437988281
20
161.022086435728
11
44.242687988281
21
161.322086435728
0
LINE
8
LAYER14
62
8
10
44.242687988281
20
161.322086435728
11
43.286437988281
21
161.322086435728
0
LINE
8
LAYER14
62
8
10
44.291433216234
20
190.323646345101
11
44.291433216234
21
190.623646345101
0
LINE
8
LAYER14
62
8
10
44.291433216234
20
190.623646345101
11
45.416433216234
21
190.623646345101
0
LINE
8
LAYER14
62
8
10
45.416433216234
20
190.623646345101
11
45.416433216234
21
189.923646345101
0
LINE
8
LAYER14
62
8
10
45.416433216234
20
189.923646345101
11
44.853933216234
21
189.423646345101
0
LINE
8
LAYER14
62
8
10
44.853933216234
20
189.423646345101
11
44.853933216234
21
188.623646345101
0
LINE
8
LAYER14
62
8
10
71.264066646414
20
217.810498377100
11
71.095316646414
21
218.110498377100
0
LINE
8
LAYER14
62
8
10
71.095316646414
20
218.110498377100
11
71.095316646414
21
218.510498377100
0
LINE
8
LAYER14
62
8
10
71.095316646414
20
218.510498377100
11
71.264066646414
21
218.810498377100
0
LINE
8
LAYER14
62
8
10
71.264066646414
20
218.810498377100
11
72.051566646414
21
218.810498377100
0
LINE
8
LAYER14
62
8
10
72.051566646414
20
218.810498377100
11
72.220316646414
21
218.510498377100
0
LINE
8
LAYER14
62
8
10
72.220316646414
20
218.510498377100
11
72.220316646414
21
218.110498377100
0
LINE
8
LAYER14
62
8
10
72.220316646414
20
218.110498377100
11
72.051566646414
21
217.810498377100
0
LINE
8
LAYER14
62
8
10
72.051566646414
20
217.810498377100
11
71.264066646414
21
217.810498377100
0
LINE
8
LAYER14
62
8
10
71.264066646414
20
218.810498377100
11
71.095316646414
21
219.110498377100
0
LINE
8
LAYER14
62
8
10
71.095316646414
20
219.110498377100
11
71.095316646414
21
219.510498377100
0
LINE
8
LAYER14
62
8
10
71.095316646414
20
219.510498377100
11
71.264066646414
21
219.810498377100
0
LINE
8
LAYER14
62
8
10
71.264066646414
20
219.810498377100
11
72.051566646414
21
219.810498377100
0
LINE
8
LAYER14
62
8
10
72.051566646414
20
219.810498377100
11
72.220316646414
21
219.510498377100
0
LINE
8
LAYER14
62
8
10
72.220316646414
20
219.510498377100
11
72.220316646414
21
219.110498377100
0
LINE
8
LAYER14
62
8
10
72.220316646414
20
219.110498377100
11
72.051566646414
21
218.810498377100
0
LINE
8
LAYER14
62
8
10
101.000000000000
20
220.013562011719
11
101.168750000000
21
219.713562011719
0
LINE
8
LAYER14
62
8
10
101.168750000000
20
219.713562011719
11
101.956250000000
21
219.713562011719
0
LINE
8
LAYER14
62
8
10
101.956250000000
20
219.713562011719
11
102.125000000000
21
220.013562011719
0
LINE
8
LAYER14
62
8
10
102.125000000000
20
220.013562011719
11
102.125000000000
21
221.413562011719
0
LINE
8
LAYER14
62
8
10
102.125000000000
20
221.413562011719
11
101.956250000000
21
221.713562011719
0
LINE
8
LAYER14
62
8
10
101.956250000000
20
221.713562011719
11
101.168750000000
21
221.713562011719
0
LINE
8
LAYER14
62
8
10
101.168750000000
20
221.713562011719
11
101.000000000000
21
221.413562011719
0
LINE
8
LAYER14
62
8
10
101.000000000000
20
221.413562011719
11
101.000000000000
21
221.013562011719
0
LINE
8
LAYER14
62
8
10
101.000000000000
20
221.013562011719
11
101.168750000000
21
220.713562011719
0
LINE
8
LAYER14
62
8
10
101.168750000000
20
220.713562011719
11
102.125000000000
21
220.713562011719
0
LINE
8
LAYER14
62
8
10
126.225000000000
20
221.113562011719
11
126.562500000000
21
221.713562011719
0
LINE
8
LAYER14
62
8
10
126.562500000000
20
221.713562011719
11
126.562500000000
21
219.713562011719
0
LINE
8
LAYER14
62
8
10
126.337500000000
20
219.713562011719
11
126.787500000000
21
219.713562011719
0
LINE
8
LAYER14
62
8
10
127.781250000000
20
219.713562011719
11
128.343750000000
21
219.713562011719
0
LINE
8
LAYER14
62
8
10
128.343750000000
20
219.713562011719
11
128.625000000000
21
220.213562011719
0
LINE
8
LAYER14
62
8
10
128.625000000000
20
220.213562011719
11
128.625000000000
21
221.213562011719
0
LINE
8
LAYER14
62
8
10
128.625000000000
20
221.213562011719
11
128.343750000000
21
221.713562011719
0
LINE
8
LAYER14
62
8
10
128.343750000000
20
221.713562011719
11
127.781250000000
21
221.713562011719
0
LINE
8
LAYER14
62
8
10
127.781250000000
20
221.713562011719
11
127.500000000000
21
221.213562011719
0
LINE
8
LAYER14
62
8
10
127.500000000000
20
221.213562011719
11
127.500000000000
21
220.213562011719
0
LINE
8
LAYER14
62
8
10
127.500000000000
20
220.213562011719
11
127.781250000000
21
219.713562011719
0
LINE
8
LAYER14
62
8
10
151.225000000000
20
221.113562011719
11
151.562500000000
21
221.713562011719
0
LINE
8
LAYER14
62
8
10
151.562500000000
20
221.713562011719
11
151.562500000000
21
219.713562011719
0
LINE
8
LAYER14
62
8
10
151.337500000000
20
219.713562011719
11
151.787500000000
21
219.713562011719
0
LINE
8
LAYER14
62
8
10
152.725000000000
20
221.113562011719
11
153.062500000000
21
221.713562011719
0
LINE
8
LAYER14
62
8
10
153.062500000000
20
221.713562011719
11
153.062500000000
21
219.713562011719
0
LINE
8
LAYER14
62
8
10
152.837500000000
20
219.713562011719
11
153.287500000000
21
219.713562011719
0
LINE
8
LAYER14
62
8
10
176.225000000000
20
221.113562011719
11
176.562500000000
21
221.713562011719
0
LINE
8
LAYER14
62
8
10
176.562500000000
20
221.713562011719
11
176.562500000000
21
219.713562011719
0
LINE
8
LAYER14
62
8
10
176.337500000000
20
219.713562011719
11
176.787500000000
21
219.713562011719
0
LINE
8
LAYER14
62
8
10
177.500000000000
20
221.413562011719
11
177.668750000000
21
221.713562011719
0
LINE
8
LAYER14
62
8
10
177.668750000000
20
221.713562011719
11
178.456250000000
21
221.713562011719
0
LINE
8
LAYER14
62
8
10
178.456250000000
20
221.713562011719
11
178.625000000000
21
221.413562011719
0
LINE
8
LAYER14
62
8
10
178.625000000000
20
221.413562011719
11
178.625000000000
21
221.113562011719
0
LINE
8
LAYER14
62
8
10
178.625000000000
20
221.113562011719
11
177.500000000000
21
220.013562011719
0
LINE
8
LAYER14
62
8
10
177.500000000000
20
220.013562011719
11
177.500000000000
21
219.713562011719
0
LINE
8
LAYER14
62
8
10
177.500000000000
20
219.713562011719
11
178.625000000000
21
219.713562011719
0
LINE
8
LAYER14
62
8
10
178.625000000000
20
219.713562011719
11
178.625000000000
21
220.013562011719
0
LINE
8
LAYER14
62
8
10
201.225000000000
20
221.113562011719
11
201.562500000000
21
221.713562011719
0
LINE
8
LAYER14
62
8
10
201.562500000000
20
221.713562011719
11
201.562500000000
21
219.713562011719
0
LINE
8
LAYER14
62
8
10
201.337500000000
20
219.713562011719
11
201.787500000000
21
219.713562011719
0
LINE
8
LAYER14
62
8
10
202.500000000000
20
221.513562011719
11
202.612500000000
21
221.713562011719
0
LINE
8
LAYER14
62
8
10
202.612500000000
20
221.713562011719
11
203.512500000000
21
221.713562011719
0
LINE
8
LAYER14
62
8
10
203.512500000000
20
221.713562011719
11
203.625000000000
21
221.513562011719
0
LINE
8
LAYER14
62
8
10
203.625000000000
20
221.513562011719
11
203.625000000000
21
221.113562011719
0
LINE
8
LAYER14
62
8
10
203.625000000000
20
221.113562011719
11
203.512500000000
21
220.913562011719
0
LINE
8
LAYER14
62
8
10
203.512500000000
20
220.913562011719
11
202.837500000000
21
220.913562011719
0
LINE
8
LAYER14
62
8
10
203.512500000000
20
220.913562011719
11
203.625000000000
21
220.713562011719
0
LINE
8
LAYER14
62
8
10
203.625000000000
20
220.713562011719
11
203.625000000000
21
219.913562011719
0
LINE
8
LAYER14
62
8
10
203.625000000000
20
219.913562011719
11
203.512500000000
21
219.713562011719
0
LINE
8
LAYER14
62
8
10
203.512500000000
20
219.713562011719
11
202.612500000000
21
219.713562011719
0
LINE
8
LAYER14
62
8
10
202.612500000000
20
219.713562011719
11
202.500000000000
21
219.913562011719
0
LINE
8
LAYER14
62
8
10
226.225000000000
20
221.113562011719
11
226.562500000000
21
221.713562011719
0
LINE
8
LAYER14
62
8
10
226.562500000000
20
221.713562011719
11
226.562500000000
21
219.713562011719
0
LINE
8
LAYER14
62
8
10
226.337500000000
20
219.713562011719
11
226.787500000000
21
219.713562011719
0
LINE
8
LAYER14
62
8
10
227.500000000000
20
221.713562011719
11
227.500000000000
21
220.913562011719
0
LINE
8
LAYER14
62
8
10
227.500000000000
20
220.913562011719
11
228.625000000000
21
220.913562011719
0
LINE
8
LAYER14
62
8
10
228.625000000000
20
221.713562011719
11
228.625000000000
21
219.713562011719
0
LINE
8
LAYER14
62
8
10
251.225000000000
20
221.113562011719
11
251.562500000000
21
221.713562011719
0
LINE
8
LAYER14
62
8
10
251.562500000000
20
221.713562011719
11
251.562500000000
21
219.713562011719
0
LINE
8
LAYER14
62
8
10
251.337500000000
20
219.713562011719
11
251.787500000000
21
219.713562011719
0
LINE
8
LAYER14
62
8
10
253.625000000000
20
221.713562011719
11
252.500000000000
21
221.713562011719
0
LINE
8
LAYER14
62
8
10
252.500000000000
20
221.713562011719
11
252.500000000000
21
220.913562011719
0
LINE
8
LAYER14
62
8
10
252.500000000000
20
220.913562011719
11
253.456250000000
21
220.913562011719
0
LINE
8
LAYER14
62
8
10
253.456250000000
20
220.913562011719
11
253.625000000000
21
220.613562011719
0
LINE
8
LAYER14
62
8
10
253.625000000000
20
220.613562011719
11
253.625000000000
21
220.013562011719
0
LINE
8
LAYER14
62
8
10
253.625000000000
20
220.013562011719
11
253.456250000000
21
219.713562011719
0
LINE
8
LAYER14
62
8
10
253.456250000000
20
219.713562011719
11
252.668750000000
21
219.713562011719
0
LINE
8
LAYER14
62
8
10
252.668750000000
20
219.713562011719
11
252.500000000000
21
220.013562011719
0
LINE
8
LAYER15
62
8
10
10.000000000000
20
0.000000000000
11
10.000000000000
21
253.000000000000
0
LINE
8
LAYER15
62
8
10
10.000000000000
20
253.000000000000
11
0.000000000000
21
263.000000000000
0
LINE
8
LAYER15
62
8
10
0.000000000000
20
263.000000000000
11
0.000000000000
21
0.000000000000
0
LINE
8
LAYER15
62
8
10
0.000000000000
20
0.000000000000
11
10.000000000000
21
0.000000000000
0
LINE
8
LAYER15
62
8
10
10.000000000000
20
253.000000000000
11
265.000000000000
21
253.000000000000
0
LINE
8
LAYER15
62
8
10
265.000000000000
20
253.000000000000
11
265.000000000000
21
263.000000000000
0
LINE
8
LAYER15
62
8
10
265.000000000000
20
263.000000000000
11
0.000000000000
21
263.000000000000
0
LINE
8
LAYER15
62
8
10
0.000000000000
20
263.000000000000
11
10.000000000000
21
253.000000000000
0
ENDSEC
0
EOF
